999
dxflib 3.12.2.0
  0
SECTION
  2
HEADER
  9
$ACADVER
  1
AC1015
  9
$HANDSEED
  5
FFFF
  9
$ANGBASE
 50
0.0
  9
$ATTMODE
 70
1
  9
$AUNITS
 70
0
  9
$AUPREC
 70
0
  9
$CELTSCALE
 40
1.0
  9
$CHAMFERA
 40
0.0
  9
$CHAMFERB
 40
0.0
  9
$CHAMFERC
 40
0.0
  9
$CHAMFERD
 40
0.0
  9
$CMLJUST
 70
0
  9
$CMLSCALE
 40
1.0
  9
$DIMADEC
 70
0
  9
$DIMALTD
 70
3
  9
$DIMALTF
 40
0.03937007874016
  9
$DIMALTRND
 40
0.0
  9
$DIMALTTD
 70
2
  9
$DIMALTTZ
 70
0
  9
$DIMALTU
 70
2
  9
$DIMALTZ
 70
0
  9
$DIMAPOST
  1

  9
$DIMASZ
 40
2.5
  9
$DIMATFIT
 70
3
  9
$DIMAUNIT
 70
0
  9
$DIMAZIN
 70
0
  9
$DIMCEN
 40
2.5
  9
$DIMDEC
 70
4
  9
$DIMDLE
 40
0.0
  9
$DIMDLI
 40
3.75
  9
$DIMDSEP
 70
46
  9
$DIMEXE
 40
1.25
  9
$DIMEXO
 40
0.625
  9
$DIMFRAC
 70
0
  9
$DIMGAP
 40
0.625
  9
$DIMJUST
 70
0
  9
$DIMLFAC
 40
1.0
  9
$DIMLUNIT
 70
2
  9
$DIMLWD
 70
-2
  9
$DIMLWE
 70
-2
  9
$DIMPOST
  1

  9
$DIMRND
 40
0.0
  9
$DIMSCALE
 40
1.0
  9
$DIMTAD
 70
1
  9
$DIMTDEC
 70
4
  9
$DIMTFAC
 40
1.0
  9
$DIMTM
 40
0.0
  9
$DIMTOLJ
 70
1
  9
$DIMTP
 40
0.0
  9
$DIMTSZ
 40
0.0
  9
$DIMTVP
 40
0.0
  9
$DIMTXT
 40
2.5
  9
$DIMTZIN
 70
0
  9
$DIMZIN
 70
8
  9
$DWGCODEPAGE
  3
ANSI_1252
  9
$ELEVATION
 40
0.0
  9
$EXTMAX
 10
149.0
 20
159.0
 30
0.0
  9
$EXTMIN
 10
0.6500000000000628
 20
0.9999999999999978
 30
0.0
  9
$FILLETRAD
 40
15.0
  9
$INSBASE
 10
0.0
 20
0.0
 30
0.0
  9
$INSUNITS
 70
0
  9
$LIMMAX
 10
420.0
 20
297.0
  9
$LIMMIN
 10
0.0
 20
0.0
  9
$LTSCALE
 40
1.0
  9
$LUNITS
 70
2
  9
$LUPREC
 70
2
  9
$MAXACTVP
 70
2
  9
$MEASUREMENT
 70
0
  9
$PDMODE
 70
0
  9
$PDSIZE
 40
0.0
  9
$PELEVATION
 40
0.0
  9
$PEXTMAX
 10
-100000000000000000000.0
 20
-100000000000000000000.0
 30
-100000000000000000000.0
  9
$PEXTMIN
 10
100000000000000000000.0
 20
100000000000000000000.0
 30
100000000000000000000.0
  9
$PINSBASE
 10
0.0
 20
0.0
 30
0.0
  9
$PLIMMAX
 10
10.75
 20
8.25
  9
$PLIMMIN
 10
-0.25
 20
-0.25
  9
$PLINEWID
 40
0.0
  9
$PROXYGRAPHICS
 70
1
  9
$PUCSORG
 10
0.0
 20
0.0
 30
0.0
  9
$PUCSXDIR
 10
1.0
 20
0.0
 30
0.0
  9
$PUCSYDIR
 10
0.0
 20
1.0
 30
0.0
  9
$SHADEDGE
 70
3
  9
$SHADEDIF
 70
70
  9
$SKETCHINC
 40
1.0
  9
$SPLINESEGS
 70
8
  9
$SPLINETYPE
 70
6
  9
$SURFTAB1
 70
6
  9
$SURFTAB2
 70
6
  9
$SURFTYPE
 70
6
  9
$SURFU
 70
6
  9
$SURFV
 70
6
  9
$TEXTSIZE
 40
2.5
  9
$THICKNESS
 40
0.0
  9
$TRACEWID
 40
1.0
  9
$TREEDEPTH
 70
3020
  9
$UCSORG
 10
0.0
 20
0.0
 30
0.0
  9
$UCSXDIR
 10
1.0
 20
0.0
 30
0.0
  9
$UCSYDIR
 10
0.0
 20
1.0
 30
0.0
  9
$UNITMODE
 70
0
  9
$USERI1
 70
0
  9
$USERI2
 70
0
  9
$USERI3
 70
0
  9
$USERI4
 70
0
  9
$USERI5
 70
0
  9
$USERR1
 40
0.0
  9
$USERR2
 40
0.0
  9
$USERR3
 40
0.0
  9
$USERR4
 40
0.0
  9
$USERR5
 40
0.0
  0
ENDSEC
  0
SECTION
  2
TABLES
  0
TABLE
  2
VPORT
  5
8
100
AcDbSymbolTable
 70
1
  0
VPORT
  5
30
100
AcDbSymbolTableRecord
100
AcDbViewportTableRecord
  2
*Active
 70
0
 10
0.0
 20
0.0
 11
1.0
 21
1.0
 12
286.30555555555549
 22
148.5
 13
0.0
 23
0.0
 14
10.0
 24
10.0
 15
10.0
 25
10.0
 16
0.0
 26
0.0
 36
1.0
 17
0.0
 27
0.0
 37
0.0
 40
297.0
 41
1.92798353909465
 42
50.0
 43
0.0
 44
0.0
 50
0.0
 51
0.0
 71
0
 72
100
 73
1
 74
3
 75
1
 76
1
 77
0
 78
0
281
0
 65
1
110
0.0
120
0.0
130
0.0
111
1.0
121
0.0
131
0.0
112
0.0
122
1.0
132
0.0
 79
0
146
0.0
  0
ENDTAB
  0
TABLE
  2
LTYPE
  5
5
100
AcDbSymbolTable
 70
50
  0
LTYPE
  5
16
100
AcDbSymbolTableRecord
100
AcDbLinetypeTableRecord
  2
Continuous
 70
0
  3
Solid line
 72
65
 73
0
 40
0.0
  0
LTYPE
  5
31
100
AcDbSymbolTableRecord
100
AcDbLinetypeTableRecord
  2
ACAD_ISO15W100
 70
0
  3
ISO double-dash triple-dot __ __ . . . __ __ . .
 72
65
 73
10
 40
39.0
 49
12.0
 74
0
 49
-3.0
 74
0
 49
12.0
 74
0
 49
-3.0
 74
0
 49
0.0
 74
0
 49
-3.0
 74
0
 49
0.0
 74
0
 49
-3.0
 74
0
 49
0.0
 74
0
 49
-3.0
 74
0
  0
LTYPE
  5
32
100
AcDbSymbolTableRecord
100
AcDbLinetypeTableRecord
  2
HOT_WATER_SUPPLY
 70
0
  3
Hot water supply ---- HW ---- HW ---- HW ----
 72
65
 73
3
 40
22.859999999999999
 49
12.699999999999999
 74
0
 49
-5.0800000000000001
 74
0
 49
-5.0800000000000001
 74
0
  0
LTYPE
  5
33
100
AcDbSymbolTableRecord
100
AcDbLinetypeTableRecord
  2
DIVIDE
 70
0
  3
Divide ____ . . ____ . . ____ . . ____ . . ____
 72
65
 73
6
 40
31.749999999999993
 49
12.699999999999999
 74
0
 49
-6.349999999999997
 74
0
 49
0.0
 74
0
 49
-6.349999999999997
 74
0
 49
0.0
 74
0
 49
-6.349999999999997
 74
0
  0
LTYPE
  5
34
100
AcDbSymbolTableRecord
100
AcDbLinetypeTableRecord
  2
ACAD_ISO10W100
 70
0
  3
ISO dash dot __ . __ . __ . __ . __ . __ . __ . 
 72
65
 73
4
 40
18.0
 49
12.0
 74
0
 49
-3.0
 74
0
 49
0.0
 74
0
 49
-3.0
 74
0
  0
LTYPE
  5
35
100
AcDbSymbolTableRecord
100
AcDbLinetypeTableRecord
  2
GAS_LINE
 70
0
  3
Gas line ----GAS----GAS----GAS----GAS----GAS----GAS--
 72
65
 73
3
 40
24.129999999999999
 49
12.699999999999999
 74
0
 49
-5.0800000000000001
 74
0
 49
-6.349999999999997
 74
0
  0
LTYPE
  5
36
100
AcDbSymbolTableRecord
100
AcDbLinetypeTableRecord
  2
ACAD_ISO04W100
 70
0
  3
ISO long-dash dot ____ . ____ . ____ . ____ . _
 72
65
 73
4
 40
30.0
 49
24.0
 74
0
 49
-3.0
 74
0
 49
0.0
 74
0
 49
-3.0
 74
0
  0
LTYPE
  5
14
100
AcDbSymbolTableRecord
100
AcDbLinetypeTableRecord
  2
ByBlock
 70
0
  3

 72
65
 73
0
 40
0.0
  0
LTYPE
  5
37
100
AcDbSymbolTableRecord
100
AcDbLinetypeTableRecord
  2
CENTER2
 70
0
  3
Center (.5x) ___ _ ___ _ ___ _ ___ _ ___ _ ___
 72
65
 73
4
 40
28.574999999999992
 49
19.050000000000001
 74
0
 49
-3.174999999999998
 74
0
 49
3.174999999999998
 74
0
 49
-3.174999999999998
 74
0
  0
LTYPE
  5
38
100
AcDbSymbolTableRecord
100
AcDbLinetypeTableRecord
  2
ACAD_ISO11W100
 70
0
  3
ISO double-dash dot __ __ . __ __ . __ __ . __ _
 72
65
 73
6
 40
33.0
 49
12.0
 74
0
 49
-3.0
 74
0
 49
12.0
 74
0
 49
-3.0
 74
0
 49
0.0
 74
0
 49
-3.0
 74
0
  0
LTYPE
  5
39
100
AcDbSymbolTableRecord
100
AcDbLinetypeTableRecord
  2
HIDDEN2
 70
0
  3
Hidden (.5x) _ _ _ _ _ _ _ _ _ _ _ _ _ _ _ _ _ 
 72
65
 73
2
 40
4.7624999999999975
 49
3.174999999999998
 74
0
 49
-1.587499999999999
 74
0
  0
LTYPE
  5
3A
100
AcDbSymbolTableRecord
100
AcDbLinetypeTableRecord
  2
BORDERX2
 70
0
  3
Border (2x) ____  ____  .  ____  ____  .  ___
 72
65
 73
6
 40
88.899999999999991
 49
25.399999999999999
 74
0
 49
-12.699999999999999
 74
0
 49
25.399999999999999
 74
0
 49
-12.699999999999999
 74
0
 49
0.0
 74
0
 49
-12.699999999999999
 74
0
  0
LTYPE
  5
3B
100
AcDbSymbolTableRecord
100
AcDbLinetypeTableRecord
  2
ACAD_ISO05W100
 70
0
  3
ISO long-dash double-dot ____ .. ____ .. ____ . 
 72
65
 73
6
 40
33.0
 49
24.0
 74
0
 49
-3.0
 74
0
 49
0.0
 74
0
 49
-3.0
 74
0
 49
0.0
 74
0
 49
-3.0
 74
0
  0
LTYPE
  5
3C
100
AcDbSymbolTableRecord
100
AcDbLinetypeTableRecord
  2
DASHDOTX2
 70
0
  3
Dash dot (2x) ____  .  ____  .  ____  .  ___
 72
65
 73
4
 40
50.799999999999997
 49
25.399999999999999
 74
0
 49
-12.699999999999999
 74
0
 49
0.0
 74
0
 49
-12.699999999999999
 74
0
  0
LTYPE
  5
3D
100
AcDbSymbolTableRecord
100
AcDbLinetypeTableRecord
  2
HIDDENX2
 70
0
  3
Hidden (2x) ____ ____ ____ ____ ____ ____ ____ 
 72
65
 73
2
 40
19.049999999999997
 49
12.699999999999999
 74
0
 49
-6.349999999999997
 74
0
  0
LTYPE
  5
3E
100
AcDbSymbolTableRecord
100
AcDbLinetypeTableRecord
  2
CENTERX2
 70
0
  3
Center (2x) ________  __  ________  __  _____
 72
65
 73
4
 40
101.60000000000001
 49
63.5
 74
0
 49
-12.699999999999999
 74
0
 49
12.699999999999999
 74
0
 49
-12.699999999999999
 74
0
  0
LTYPE
  5
3F
100
AcDbSymbolTableRecord
100
AcDbLinetypeTableRecord
  2
BORDER2
 70
0
  3
Border (.5x) __.__.__.__.__.__.__.__.__.__.__.
 72
65
 73
6
 40
22.224999999999987
 49
6.349999999999997
 74
0
 49
-3.174999999999998
 74
0
 49
6.349999999999997
 74
0
 49
-3.174999999999998
 74
0
 49
0.0
 74
0
 49
-3.174999999999998
 74
0
  0
LTYPE
  5
40
100
AcDbSymbolTableRecord
100
AcDbLinetypeTableRecord
  2
DASHDOT2
 70
0
  3
Dash dot (.5x) _._._._._._._._._._._._._._._.
 72
65
 73
4
 40
12.699999999999992
 49
6.349999999999997
 74
0
 49
-3.174999999999998
 74
0
 49
0.0
 74
0
 49
-3.174999999999998
 74
0
  0
LTYPE
  5
41
100
AcDbSymbolTableRecord
100
AcDbLinetypeTableRecord
  2
ACAD_ISO12W100
 70
0
  3
ISO dash double-dot __ . . __ . . __ . . __ . . 
 72
65
 73
6
 40
21.0
 49
12.0
 74
0
 49
-3.0
 74
0
 49
0.0
 74
0
 49
-3.0
 74
0
 49
0.0
 74
0
 49
-3.0
 74
0
  0
LTYPE
  5
42
100
AcDbSymbolTableRecord
100
AcDbLinetypeTableRecord
  2
ACAD_ISO07W100
 70
0
  3
ISO dot . . . . . . . . . . . . . . . . . . . . 
 72
65
 73
2
 40
3.0
 49
0.0
 74
0
 49
-3.0
 74
0
  0
LTYPE
  5
43
100
AcDbSymbolTableRecord
100
AcDbLinetypeTableRecord
  2
ACAD_ISO06W100
 70
0
  3
ISO long-dash triple-dot ____ ... ____ ... ____
 72
65
 73
8
 40
36.0
 49
24.0
 74
0
 49
-3.0
 74
0
 49
0.0
 74
0
 49
-3.0
 74
0
 49
0.0
 74
0
 49
-3.0
 74
0
 49
0.0
 74
0
 49
-3.0
 74
0
  0
LTYPE
  5
44
100
AcDbSymbolTableRecord
100
AcDbLinetypeTableRecord
  2
CENTER
 70
0
  3
Center ____ _ ____ _ ____ _ ____ _ ____ _ ____
 72
65
 73
4
 40
50.799999999999983
 49
31.75
 74
0
 49
-6.349999999999997
 74
0
 49
6.349999999999997
 74
0
 49
-6.349999999999997
 74
0
  0
LTYPE
  5
45
100
AcDbSymbolTableRecord
100
AcDbLinetypeTableRecord
  2
HIDDEN
 70
0
  3
Hidden __ __ __ __ __ __ __ __ __ __ __ __ __ __
 72
65
 73
2
 40
9.524999999999995
 49
6.349999999999997
 74
0
 49
-3.174999999999998
 74
0
  0
LTYPE
  5
46
100
AcDbSymbolTableRecord
100
AcDbLinetypeTableRecord
  2
DOTX2
 70
0
  3
Dot (2x) .  .  .  .  .  .  .  .  .  .  .  .  .  .
 72
65
 73
2
 40
12.699999999999999
 49
0.0
 74
0
 49
-12.699999999999999
 74
0
  0
LTYPE
  5
47
100
AcDbSymbolTableRecord
100
AcDbLinetypeTableRecord
  2
PHANTOM
 70
0
  3
Phantom ______  __  __  ______  __  __  ______ 
 72
65
 73
6
 40
63.499999999999972
 49
31.75
 74
0
 49
-6.349999999999997
 74
0
 49
6.349999999999997
 74
0
 49
-6.349999999999997
 74
0
 49
6.349999999999997
 74
0
 49
-6.349999999999997
 74
0
  0
LTYPE
  5
48
100
AcDbSymbolTableRecord
100
AcDbLinetypeTableRecord
  2
ACAD_ISO08W100
 70
0
  3
ISO long-dash short-dash ____ __ ____ __ ____ _
 72
65
 73
4
 40
36.0
 49
24.0
 74
0
 49
-3.0
 74
0
 49
6.0
 74
0
 49
-3.0
 74
0
  0
LTYPE
  5
49
100
AcDbSymbolTableRecord
100
AcDbLinetypeTableRecord
  2
DASHEDX2
 70
0
  3
Dashed (2x) ____  ____  ____  ____  ____  ___
 72
65
 73
2
 40
38.099999999999994
 49
25.399999999999999
 74
0
 49
-12.699999999999999
 74
0
  0
LTYPE
  5
4A
100
AcDbSymbolTableRecord
100
AcDbLinetypeTableRecord
  2
DRAINAGE
 70
0
  3
Drainage ---->---->---->----
 72
65
 73
2
 40
10.16
 49
5.0800000000000001
 74
0
 49
5.0800000000000001
 74
0
  0
LTYPE
  5
4B
100
AcDbSymbolTableRecord
100
AcDbLinetypeTableRecord
  2
ACAD_ISO02W100
 70
0
  3
ISO dash __ __ __ __ __ __ __ __ __ __ __ __ __
 72
65
 73
2
 40
15.0
 49
12.0
 74
0
 49
-3.0
 74
0
  0
LTYPE
  5
4C
100
AcDbSymbolTableRecord
100
AcDbLinetypeTableRecord
  2
PHANTOM2
 70
0
  3
Phantom (.5x) ___ _ _ ___ _ _ ___ _ _ ___ _ _
 72
65
 73
6
 40
31.749999999999986
 49
15.875
 74
0
 49
-3.174999999999998
 74
0
 49
3.174999999999998
 74
0
 49
-3.174999999999998
 74
0
 49
3.174999999999998
 74
0
 49
-3.174999999999998
 74
0
  0
LTYPE
  5
4D
100
AcDbSymbolTableRecord
100
AcDbLinetypeTableRecord
  2
DASHED2
 70
0
  3
Dashed (.5x) _ _ _ _ _ _ _ _ _ _ _ _ _ _ _ _ _ 
 72
65
 73
2
 40
9.524999999999995
 49
6.349999999999997
 74
0
 49
-3.174999999999998
 74
0
  0
LTYPE
  5
4E
100
AcDbSymbolTableRecord
100
AcDbLinetypeTableRecord
  2
ACAD_ISO09W100
 70
0
  3
ISO long-dash double-short-dash ____ __ __ ____
 72
65
 73
6
 40
45.0
 49
24.0
 74
0
 49
-3.0
 74
0
 49
6.0
 74
0
 49
-3.0
 74
0
 49
6.0
 74
0
 49
-3.0
 74
0
  0
LTYPE
  5
4F
100
AcDbSymbolTableRecord
100
AcDbLinetypeTableRecord
  2
ACAD_ISO13W100
 70
0
  3
ISO double-dash double-dot __ __ . . __ __ . . _
 72
65
 73
8
 40
36.0
 49
12.0
 74
0
 49
-3.0
 74
0
 49
12.0
 74
0
 49
-3.0
 74
0
 49
0.0
 74
0
 49
-3.0
 74
0
 49
0.0
 74
0
 49
-3.0
 74
0
  0
LTYPE
  5
50
100
AcDbSymbolTableRecord
100
AcDbLinetypeTableRecord
  2
TRACKS
 70
0
  3
Tracks -|-|-|-|-|-|-|-|-|-|-|-|-|-|-|-|-|-|-|-|-|-|-|-|-
 72
65
 73
2
 40
7.6200000000000001
 49
3.8100000000000001
 74
0
 49
3.8100000000000001
 74
0
  0
LTYPE
  5
51
100
AcDbSymbolTableRecord
100
AcDbLinetypeTableRecord
  2
DRAINAGE2
 70
0
  3
Drainage reversed----<----<----<----
 72
65
 73
2
 40
10.16
 49
5.0800000000000001
 74
0
 49
5.0800000000000001
 74
0
  0
LTYPE
  5
52
100
AcDbSymbolTableRecord
100
AcDbLinetypeTableRecord
  2
DOT2
 70
0
  3
Dot (.5x) ........................................
 72
65
 73
2
 40
3.174999999999998
 49
0.0
 74
0
 49
-3.174999999999998
 74
0
  0
LTYPE
  5
53
100
AcDbSymbolTableRecord
100
AcDbLinetypeTableRecord
  2
ZIGZAG
 70
0
  3
Zig zag /\/\/\/\/\/\/\/\/\/\/\/\/\/\/\/\/\/\/\/\/\/\/\/
 72
65
 73
4
 40
20.32254
 49
0.00254
 74
0
 49
-5.0800000000000001
 74
0
 49
-10.16
 74
0
 49
-5.0800000000000001
 74
0
  0
LTYPE
  5
54
100
AcDbSymbolTableRecord
100
AcDbLinetypeTableRecord
  2
DASHED
 70
0
  3
Dashed __ __ __ __ __ __ __ __ __ __ __ __ __ _
 72
65
 73
2
 40
19.049999999999997
 49
12.699999999999999
 74
0
 49
-6.349999999999997
 74
0
  0
LTYPE
  5
55
100
AcDbSymbolTableRecord
100
AcDbLinetypeTableRecord
  2
ACAD_ISO14W100
 70
0
  3
ISO dash triple-dot __ . . . __ . . . __ . . . _
 72
65
 73
8
 40
24.0
 49
12.0
 74
0
 49
-3.0
 74
0
 49
0.0
 74
0
 49
-3.0
 74
0
 49
0.0
 74
0
 49
-3.0
 74
0
 49
0.0
 74
0
 49
-3.0
 74
0
  0
LTYPE
  5
56
100
AcDbSymbolTableRecord
100
AcDbLinetypeTableRecord
  2
PHANTOMX2
 70
0
  3
Phantom (2x) ____________    ____    ____   _
 72
65
 73
6
 40
127.00000000000001
 49
63.5
 74
0
 49
-12.699999999999999
 74
0
 49
12.699999999999999
 74
0
 49
-12.699999999999999
 74
0
 49
12.699999999999999
 74
0
 49
-12.699999999999999
 74
0
  0
LTYPE
  5
57
100
AcDbSymbolTableRecord
100
AcDbLinetypeTableRecord
  2
DIVIDEX2
 70
0
  3
Divide (2x) ________  .  .  ________  .  .  _
 72
65
 73
6
 40
63.5
 49
25.399999999999999
 74
0
 49
-12.699999999999999
 74
0
 49
0.0
 74
0
 49
-12.699999999999999
 74
0
 49
0.0
 74
0
 49
-12.699999999999999
 74
0
  0
LTYPE
  5
58
100
AcDbSymbolTableRecord
100
AcDbLinetypeTableRecord
  2
BORDER
 70
0
  3
Border __ __ . __ __ . __ __ . __ __ . __ __ .
 72
65
 73
6
 40
44.449999999999989
 49
12.699999999999999
 74
0
 49
-6.349999999999997
 74
0
 49
12.699999999999999
 74
0
 49
-6.349999999999997
 74
0
 49
0.0
 74
0
 49
-6.349999999999997
 74
0
  0
LTYPE
  5
59
100
AcDbSymbolTableRecord
100
AcDbLinetypeTableRecord
  2
DIVIDE2
 70
0
  3
Divide (.5x) __..__..__..__..__..__..__..__.._
 72
65
 73
6
 40
15.874999999999989
 49
6.349999999999997
 74
0
 49
-3.174999999999998
 74
0
 49
0.0
 74
0
 49
-3.174999999999998
 74
0
 49
0.0
 74
0
 49
-3.174999999999998
 74
0
  0
LTYPE
  5
5A
100
AcDbSymbolTableRecord
100
AcDbLinetypeTableRecord
  2
DOT
 70
0
  3
Dot . . . . . . . . . . . . . . . . . . . . . . . .
 72
65
 73
2
 40
6.349999999999997
 49
0.0
 74
0
 49
-6.349999999999997
 74
0
  0
LTYPE
  5
5B
100
AcDbSymbolTableRecord
100
AcDbLinetypeTableRecord
  2
DASHDOT
 70
0
  3
Dash dot __ . __ . __ . __ . __ . __ . __ . __
 72
65
 73
4
 40
25.399999999999995
 49
12.699999999999999
 74
0
 49
-6.349999999999997
 74
0
 49
0.0
 74
0
 49
-6.349999999999997
 74
0
  0
LTYPE
  5
5C
100
AcDbSymbolTableRecord
100
AcDbLinetypeTableRecord
  2
FENCELINE1
 70
0
  3
Fenceline circle ----0-----0----0-----0----0-----0--
 72
65
 73
4
 40
36.829999999999998
 49
6.349999999999997
 74
0
 49
-2.54
 74
0
 49
-2.54
 74
0
 49
25.399999999999999
 74
0
  0
LTYPE
  5
5D
100
AcDbSymbolTableRecord
100
AcDbLinetypeTableRecord
  2
BATTING
 70
0
  3
Batting SSSSSSSSSSSSSSSSSSSSSSSSSSSSSSSSSSSSSSSSSSSSSSS
 72
65
 73
4
 40
10.16254
 49
0.00254
 74
0
 49
-2.54
 74
0
 49
-5.0800000000000001
 74
0
 49
-2.54
 74
0
  0
LTYPE
  5
5E
100
AcDbSymbolTableRecord
100
AcDbLinetypeTableRecord
  2
ACAD_ISO03W100
 70
0
  3
ISO dash space __    __    __    __    __    __
 72
65
 73
2
 40
30.0
 49
12.0
 74
0
 49
-18.0
 74
0
  0
LTYPE
  5
15
100
AcDbSymbolTableRecord
100
AcDbLinetypeTableRecord
  2
ByLayer
 70
0
  3

 72
65
 73
0
 40
0.0
  0
LTYPE
  5
5F
100
AcDbSymbolTableRecord
100
AcDbLinetypeTableRecord
  2
FENCELINE2
 70
0
  3
Fenceline square ----[]-----[]----[]-----[]----[]---
 72
65
 73
4
 40
36.829999999999998
 49
6.349999999999997
 74
0
 49
-2.54
 74
0
 49
-2.54
 74
0
 49
25.399999999999999
 74
0
  0
ENDTAB
  0
TABLE
  2
LAYER
  5
2
100
AcDbSymbolTable
 70
4
  0
LAYER
  5
60
100
AcDbSymbolTableRecord
100
AcDbLayerTableRecord
  2
grabado linea medio
 70
0
 62
3
420
65280
  6
Continuous
370
-3
390
F
  0
LAYER
  5
61
100
AcDbSymbolTableRecord
100
AcDbLayerTableRecord
  2
mesa de trabajo y auxiliares
 70
0
 62
7
420
16777215
  6
Continuous
370
-3
390
F
  0
LAYER
  5
62
100
AcDbSymbolTableRecord
100
AcDbLayerTableRecord
  2
Corte exterior
 70
0
 62
1
420
16711680
  6
Continuous
370
-3
390
F
  0
LAYER
  5
10
100
AcDbSymbolTableRecord
100
AcDbLayerTableRecord
  2
0
 70
0
 62
7
420
16777215
  6
Continuous
370
-3
390
F
  0
ENDTAB
  0
TABLE
  2
STYLE
  5
3
100
AcDbSymbolTable
 70
1
  0
STYLE
  5
63
100
AcDbSymbolTableRecord
100
AcDbTextStyleTableRecord
  2
Standard
 70
0
 40
0.0
 41
1.0
 50
0.0
 71
0
 42
2.5
  3

  4

1001
ACAD
1000
txt
1071
0
  0
ENDTAB
  0
TABLE
  2
VIEW
  5
6
100
AcDbSymbolTable
 70
0
  0
ENDTAB
  0
TABLE
  2
UCS
  5
7
100
AcDbSymbolTable
 70
0
  0
ENDTAB
  0
TABLE
  2
APPID
  5
9
100
AcDbSymbolTable
 70
1
  0
APPID
  5
12
100
AcDbSymbolTableRecord
100
AcDbRegAppTableRecord
  2
ACAD
 70
0
  0
APPID
  5
64
100
AcDbSymbolTableRecord
100
AcDbRegAppTableRecord
  2
QCAD
 70
0
  0
ENDTAB
  0
TABLE
  2
DIMSTYLE
  5
A
100
AcDbSymbolTable
 70
1
100
AcDbDimStyleTable
 71
0
  0
DIMSTYLE
105
27
100
AcDbSymbolTableRecord
100
AcDbDimStyleTableRecord
  2
Standard
 41
2.5
 42
0.625
 43
3.75
 44
1.25
 70
0
 73
0
 74
0
 77
1
 78
8
140
2.5
141
2.5
143
0.03937007874016
147
0.625
171
3
172
1
271
2
272
2
274
3
278
44
283
0
284
8
340
63
  0
ENDTAB
  0
TABLE
  2
BLOCK_RECORD
  5
1
100
AcDbSymbolTable
 70
1
  0
BLOCK_RECORD
  5
1F
100
AcDbSymbolTableRecord
100
AcDbBlockTableRecord
  2
*Model_Space
340
22
  0
BLOCK_RECORD
  5
1B
100
AcDbSymbolTableRecord
100
AcDbBlockTableRecord
  2
*Paper_Space
340
1E
  0
BLOCK_RECORD
  5
23
100
AcDbSymbolTableRecord
100
AcDbBlockTableRecord
  2
*Paper_Space0
340
26
  0
BLOCK_RECORD
  5
65
100
AcDbSymbolTableRecord
100
AcDbBlockTableRecord
  2
A$C543D0B07
340
0
  0
BLOCK_RECORD
  5
66
100
AcDbSymbolTableRecord
100
AcDbBlockTableRecord
  2
A$C52901F0D
340
0
  0
BLOCK_RECORD
  5
67
100
AcDbSymbolTableRecord
100
AcDbBlockTableRecord
  2
$PAPER_SPACE
340
0
  0
BLOCK_RECORD
  5
68
100
AcDbSymbolTableRecord
100
AcDbBlockTableRecord
  2
A$C2F690609
340
0
  0
BLOCK_RECORD
  5
69
100
AcDbSymbolTableRecord
100
AcDbBlockTableRecord
  2
$MODEL_SPACE
340
0
  0
ENDTAB
  0
ENDSEC
  0
SECTION
  2
BLOCKS
  0
BLOCK
  5
20
100
AcDbEntity
  8
0
100
AcDbBlockBegin
  2
*Model_Space
 70
0
 10
0.0
 20
0.0
 30
0.0
  3
*Model_Space
  1

  0
ENDBLK
  5
21
100
AcDbEntity
  8
0
100
AcDbBlockEnd
  0
BLOCK
  5
1C
100
AcDbEntity
 67
1
  8
0
100
AcDbBlockBegin
  2
*Paper_Space
 70
0
 10
0.0
 20
0.0
 30
0.0
  3
*Paper_Space
  1

  0
ENDBLK
  5
1D
100
AcDbEntity
 67
1
  8
0
100
AcDbBlockEnd
  0
BLOCK
  5
24
100
AcDbEntity
  8
0
100
AcDbBlockBegin
  2
*Paper_Space0
 70
0
 10
0.0
 20
0.0
 30
0.0
  3
*Paper_Space0
  1

  0
ENDBLK
  5
25
100
AcDbEntity
  8
0
100
AcDbBlockEnd
  0
BLOCK
  5
6A
100
AcDbEntity
  8
0
100
AcDbBlockBegin
  2
A$C543D0B07
 70
0
 10
0.0
 20
0.0
 30
0.0
  3
A$C543D0B07
  1

  0
LINE
  5
6B
100
AcDbEntity
100
AcDbLine
  8
0
 62
256
370
-1
 48
1.0
  6
ByLayer
 10
-0.000000225996672
 20
49.999999722477241
 30
0.0
 11
14.9999997740033
 21
49.999999722477241
 31
0.0
  0
LINE
  5
6C
100
AcDbEntity
100
AcDbLine
  8
0
 62
256
370
-1
 48
1.0
  6
ByLayer
 10
14.9999997740033
 20
49.999999722477241
 30
0.0
 11
14.9999997740033
 21
52.999999722477249
 31
0.0
  0
LINE
  5
6D
100
AcDbEntity
100
AcDbLine
  8
0
 62
256
370
-1
 48
1.0
  6
ByLayer
 10
14.9999997740033
 20
52.999999722477249
 30
0.0
 11
34.9999997740033
 21
52.999999722477249
 31
0.0
  0
LINE
  5
6E
100
AcDbEntity
100
AcDbLine
  8
0
 62
256
370
-1
 48
1.0
  6
ByLayer
 10
34.9999997740033
 20
52.999999722477249
 30
0.0
 11
34.9999997740033
 21
49.999999722477241
 31
0.0
  0
LINE
  5
6F
100
AcDbEntity
100
AcDbLine
  8
0
 62
256
370
-1
 48
1.0
  6
ByLayer
 10
34.9999997740033
 20
49.999999722477241
 30
0.0
 11
49.999999774003278
 21
49.999999722477241
 31
0.0
  0
LINE
  5
70
100
AcDbEntity
100
AcDbLine
  8
0
 62
256
370
-1
 48
1.0
  6
ByLayer
 10
49.999999774003278
 20
49.999999722477241
 30
0.0
 11
-0.000000225996672
 21
-0.0000002775227586
 31
0.0
  0
LINE
  5
71
100
AcDbEntity
100
AcDbLine
  8
0
 62
256
370
-1
 48
1.0
  6
ByLayer
 10
-0.000000225996672
 20
34.999999722477241
 30
0.0
 11
2.9999997740032991
 21
34.999999722477241
 31
0.0
  0
LINE
  5
72
100
AcDbEntity
100
AcDbLine
  8
0
 62
256
370
-1
 48
1.0
  6
ByLayer
 10
2.9999997740032991
 20
34.999999722477241
 30
0.0
 11
2.9999997740032991
 21
14.99999972247724
 31
0.0
  0
LINE
  5
73
100
AcDbEntity
100
AcDbLine
  8
0
 62
256
370
-1
 48
1.0
  6
ByLayer
 10
2.9999997740032991
 20
14.99999972247724
 30
0.0
 11
-0.000000225996672
 21
14.99999972247724
 31
0.0
  0
LINE
  5
74
100
AcDbEntity
100
AcDbLine
  8
0
 62
256
370
-1
 48
1.0
  6
ByLayer
 10
-0.000000225996672
 20
-0.0000002775227586
 30
0.0
 11
-0.000000225996672
 21
149.99999972247721
 31
0.0
  0
ENDBLK
  5
75
100
AcDbEntity
  8
0
100
AcDbBlockEnd
  0
BLOCK
  5
76
100
AcDbEntity
  8
0
100
AcDbBlockBegin
  2
A$C52901F0D
 70
0
 10
0.0
 20
0.0
 30
0.0
  3
A$C52901F0D
  1

  0
ENDBLK
  5
77
100
AcDbEntity
  8
0
100
AcDbBlockEnd
  0
BLOCK
  5
78
100
AcDbEntity
  8
0
100
AcDbBlockBegin
  2
$PAPER_SPACE
 70
0
 10
0.0
 20
0.0
 30
0.0
  3
$PAPER_SPACE
  1

  0
ENDBLK
  5
79
100
AcDbEntity
  8
0
100
AcDbBlockEnd
  0
BLOCK
  5
7A
100
AcDbEntity
  8
0
100
AcDbBlockBegin
  2
A$C2F690609
 70
0
 10
0.0
 20
0.0
 30
0.0
  3
A$C2F690609
  1

  0
LINE
  5
7B
100
AcDbEntity
100
AcDbLine
  8
0
 62
256
370
-1
 48
1.0
  6
ByLayer
 10
149.9999997740033
 20
149.99999972247721
 30
0.0
 11
-0.000000225996672
 21
149.99999972247721
 31
0.0
  0
LINE
  5
7C
100
AcDbEntity
100
AcDbLine
  8
0
 62
256
370
-1
 48
1.0
  6
ByLayer
 10
49.999999774003278
 20
129.99999972247721
 30
0.0
 11
69.999914660438222
 21
130.05834811884591
 31
0.0
  0
LINE
  5
7D
100
AcDbEntity
100
AcDbLine
  8
0
 62
256
370
-1
 48
1.0
  6
ByLayer
 10
69.999914660438222
 20
130.05834811884591
 30
0.0
 11
69.999914660438222
 21
127.0583481188459
 31
0.0
  0
LINE
  5
7E
100
AcDbEntity
100
AcDbLine
  8
0
 62
256
370
-1
 48
1.0
  6
ByLayer
 10
69.999914660438222
 20
127.0583481188459
 30
0.0
 11
89.999914660438193
 21
127.0583481188459
 31
0.0
  0
LINE
  5
7F
100
AcDbEntity
100
AcDbLine
  8
0
 62
256
370
-1
 48
1.0
  6
ByLayer
 10
89.999914660438193
 20
127.0583481188459
 30
0.0
 11
89.999914660438193
 21
130.05834811884591
 31
0.0
  0
LINE
  5
80
100
AcDbEntity
100
AcDbLine
  8
0
 62
256
370
-1
 48
1.0
  6
ByLayer
 10
89.999914660438193
 20
130.05834811884591
 30
0.0
 11
109.99991466043819
 21
130.05834811884591
 31
0.0
  0
LINE
  5
81
100
AcDbEntity
100
AcDbLine
  8
0
 62
256
370
-1
 48
1.0
  6
ByLayer
 10
109.99991466043819
 20
130.05834811884591
 30
0.0
 11
109.99991466043819
 21
127.0583481188459
 31
0.0
  0
LINE
  5
82
100
AcDbEntity
100
AcDbLine
  8
0
 62
256
370
-1
 48
1.0
  6
ByLayer
 10
109.99991466043819
 20
127.0583481188459
 30
0.0
 11
129.99991466043821
 21
127.0583481188459
 31
0.0
  0
LINE
  5
83
100
AcDbEntity
100
AcDbLine
  8
0
 62
256
370
-1
 48
1.0
  6
ByLayer
 10
129.99991466043821
 20
127.0583481188459
 30
0.0
 11
129.99991466043821
 21
130.05834811884591
 31
0.0
  0
LINE
  5
84
100
AcDbEntity
100
AcDbLine
  8
0
 62
256
370
-1
 48
1.0
  6
ByLayer
 10
129.99991466043821
 20
130.05834811884591
 30
0.0
 11
149.99991466043821
 21
130.05834811884591
 31
0.0
  0
LINE
  5
85
100
AcDbEntity
100
AcDbLine
  8
0
 62
256
370
-1
 48
1.0
  6
ByLayer
 10
49.999999774003278
 20
149.99999972247721
 30
0.0
 11
49.999999774003321
 21
49.999999722477241
 31
0.0
  0
LINE
  5
86
100
AcDbEntity
100
AcDbLine
  8
0
 62
256
370
-1
 48
1.0
  6
ByLayer
 10
149.9999997740033
 20
149.99999972247721
 30
0.0
 11
149.9999997740033
 21
-0.0000002775227586
 31
0.0
  0
ENDBLK
  5
87
100
AcDbEntity
  8
0
100
AcDbBlockEnd
  0
BLOCK
  5
88
100
AcDbEntity
  8
0
100
AcDbBlockBegin
  2
$MODEL_SPACE
 70
0
 10
0.0
 20
0.0
 30
0.0
  3
$MODEL_SPACE
  1

  0
ENDBLK
  5
89
100
AcDbEntity
  8
0
100
AcDbBlockEnd
  0
ENDSEC
  0
SECTION
  2
ENTITIES
  0
LWPOLYLINE
  5
8A
  8
mesa de trabajo y auxiliares
 62
256
370
-1
 48
1.0
  6
ByLayer
100
AcDbEntity
100
AcDbPolyline
 90
4
 70
129
 10
0.0
 20
0.0
 30
0.0
 10
150.0
 20
0.0
 30
0.0
 10
150.0
 20
160.0
 30
0.0
 10
0.0
 20
160.0
 30
0.0
  0
LWPOLYLINE
  5
8B
  8
mesa de trabajo y auxiliares
 62
256
370
-1
 48
1.0
  6
ACAD_ISO02W100
100
AcDbEntity
100
AcDbPolyline
 90
4
 70
129
 10
1.0
 20
1.0
 30
0.0
 10
149.0
 20
1.0
 30
0.0
 10
149.0
 20
159.0
 30
0.0
 10
1.0
 20
159.0
 30
0.0
  0
LWPOLYLINE
  5
8C
  8
grabado linea medio
 62
256
370
-1
 48
1.0
  6
ByLayer
100
AcDbEntity
100
AcDbPolyline
 90
4
 70
1
 10
95.0
 20
64.0
 30
0.0
 10
132.69999999999999
 20
64.0
 30
0.0
 10
132.69999999999999
 20
81.0
 30
0.0
 10
95.0
 20
81.0
 30
0.0
  0
LWPOLYLINE
  5
8D
  8
Corte exterior
 62
256
370
-1
 48
1.0
  6
ByLayer
100
AcDbEntity
100
AcDbPolyline
 90
14
 70
128
 10
68.650001657155968
 20
80.167985013590737
 30
0.0
 10
68.650001657155968
 20
120.7
 30
0.0
 10
80.449999999999974
 20
120.7
 30
0.0
 10
80.449999999999974
 20
143.90000000000001
 30
0.0
 10
68.650001657155968
 20
143.90000000000001
 30
0.0
 10
68.650001657155968
 20
151.0
 30
0.0
 10
149.0
 20
151.0
 30
0.0
 10
149.0
 20
143.90000000000001
 30
0.0
 10
137.19999999999999
 20
143.90000000000001
 30
0.0
 10
137.19999999999999
 20
120.7
 30
0.0
 10
149.0
 20
120.7
 30
0.0
 10
149.0
 20
0.9999999999999998
 30
0.0
 10
68.650001657155968
 20
1.0
 30
0.0
 10
68.650001657155968
 20
50.057602894088618
 30
0.0
  0
LWPOLYLINE
  5
8E
  8
Corte exterior
 62
256
370
-1
 48
1.0
  6
ByLayer
100
AcDbEntity
100
AcDbPolyline
 90
2
 70
128
 10
68.650001657155968
 20
51.057602894088632
 30
0.0
 10
68.650001657155968
 20
59.041755048236112
 30
0.0
  0
LWPOLYLINE
  5
8F
  8
Corte exterior
 62
256
370
-1
 48
1.0
  6
ByLayer
100
AcDbEntity
100
AcDbPolyline
 90
2
 70
128
 10
68.650001657155968
 20
60.041755048236112
 30
0.0
 10
68.650001657155968
 20
70.134269510347394
 30
0.0
  0
LWPOLYLINE
  5
90
  8
Corte exterior
 62
256
370
-1
 48
1.0
  6
ByLayer
100
AcDbEntity
100
AcDbPolyline
 90
2
 70
128
 10
68.650001657155968
 20
71.134269510347394
 30
0.0
 10
68.650001657155968
 20
79.167985013590751
 30
0.0
  0
CIRCLE
  5
91
100
AcDbEntity
100
AcDbCircle
  8
Corte exterior
 62
256
370
-1
 48
1.0
  6
ByLayer
 10
32.701122594934361
 20
110.322043262096
 30
0.0
 40
6.0
  0
CIRCLE
  5
92
100
AcDbEntity
100
AcDbCircle
  8
Corte exterior
 62
256
370
-1
 48
1.0
  6
ByLayer
 10
20.155178284926361
 20
129.52204326209599
 30
0.0
 40
8.0
  0
CIRCLE
  5
93
100
AcDbEntity
100
AcDbCircle
  8
Corte exterior
 62
256
370
-1
 48
1.0
  6
ByLayer
 10
46.15517828492635
 20
129.52204326209599
 30
0.0
 40
8.0
  0
LWPOLYLINE
  5
94
  8
mesa de trabajo y auxiliares
 62
256
370
-1
 48
1.0
  6
ByLayer
100
AcDbEntity
100
AcDbPolyline
 90
9
 70
0
 10
22.951122594934251
 20
102.6220432620961
 30
0.0
 10
42.45112259493424
 20
102.6220432620961
 30
0.0
 10
42.45112259493424
 20
118.02204326209601
 30
0.0
 10
22.951122594934251
 20
118.02204326209601
 30
0.0
 10
22.951122594934251
 20
115.322043262096
 30
0.0
 10
10.155178284926359
 20
115.322043262096
 30
0.0
 10
10.155178284926359
 20
105.322043262096
 30
0.0
 10
22.951122594934251
 20
105.322043262096
 30
0.0
 10
22.951122594934251
 20
102.6220432620961
 30
0.0
  0
LWPOLYLINE
  5
95
  8
mesa de trabajo y auxiliares
 62
256
370
-1
 48
1.0
  6
ByLayer
100
AcDbEntity
100
AcDbPolyline
 90
9
 70
0
 10
28.155178284926361
 20
139.52204326209599
 30
0.0
 10
10.655178284926359
 20
139.52204326209599
 30
0.0
 10
10.655178284926359
 20
119.52204326209601
 30
0.0
 10
55.65517828492635
 20
119.52204326209601
 30
0.0
 10
55.65517828492635
 20
139.52204326209599
 30
0.0
 10
38.155178284926357
 20
139.52204326209599
 30
0.0
 10
38.155178284926357
 20
144.02204326209599
 30
0.0
 10
28.155178284926361
 20
144.02204326209599
 30
0.0
 10
28.155178284926361
 20
139.52204326209599
 30
0.0
  0
LWPOLYLINE
  5
96
  8
Corte exterior
 62
256
370
-1
 48
1.0
  6
ByLayer
100
AcDbEntity
100
AcDbPolyline
 90
18
 70
128
 10
33.654471936360551
 20
42.515916787190633
 30
0.0
 10
42.004471936360538
 20
42.515916787190633
 30
0.0
 10
42.004471936360538
 20
38.51591678719064
 30
0.0
 10
45.404471936360551
 20
38.51591678719064
 30
0.0
 10
45.404471936360551
 20
52.515916787190612
 30
0.0
 10
36.140857338382851
 20
52.515916787190612
 30
0.0
 10
36.140857338382851
 20
49.098600081668138
 30
0.0
 10
40.154471936360537
 20
49.098600081668138
 30
0.0
 10
40.154471936360537
 20
46.698600081668118
 30
0.0
 10
26.15447193636075
 20
46.698600081668118
 30
0.0
 10
26.15447193636075
 20
49.098600081668138
 30
0.0
 10
30.154471936360661
 20
49.098600081668138
 30
0.0
 10
30.154471936360661
 20
52.515916787190612
 30
0.0
 10
20.904471936360551
 20
52.515916787190612
 30
0.0
 10
20.904471936360551
 20
38.51591678719064
 30
0.0
 10
24.30447193636056
 20
38.51591678719064
 30
0.0
 10
24.30447193636056
 20
42.515916787190633
 30
0.0
 10
32.654471936360551
 20
42.515916787190633
 30
0.0
  0
LWPOLYLINE
  5
97
  8
mesa de trabajo y auxiliares
 62
256
370
-1
 48
1.0
  6
ByLayer
100
AcDbEntity
100
AcDbPolyline
 90
8
 70
0
 10
49.15511862424674
 20
65.678034017057911
 30
0.0
 10
49.15511862424674
 20
83.978034017057837
 30
0.0
 10
39.405118624246647
 20
83.978034017057837
 30
0.0
 10
39.405118624246647
 20
100.6780340170579
 30
0.0
 10
26.905118624246651
 20
100.6780340170579
 30
0.0
 10
26.905118624246651
 20
83.978034017057837
 30
0.0
 10
17.15511862424674
 20
83.978034017057837
 30
0.0
 10
17.15511862424674
 20
65.678034017057911
 30
0.0
  0
LWPOLYLINE
  5
98
  8
Corte exterior
 62
256
370
-1
 48
1.0
  6
ByLayer
100
AcDbEntity
100
AcDbPolyline
 90
6
 70
128
 10
33.655118624246747
 20
65.678034017057911
 30
0.0
 10
49.15511862424674
 20
65.678034017057911
 30
0.0
 10
49.15511862424674
 20
33.678034017057932
 30
0.0
 10
17.15511862424674
 20
33.678034017057932
 30
0.0
 10
17.15511862424674
 20
65.678034017057911
 30
0.0
 10
32.655118624246747
 20
65.678034017057911
 30
0.0
  0
LWPOLYLINE
  5
99
  8
Corte exterior
 62
256
370
-1
 48
1.0
  6
ByLayer
100
AcDbEntity
100
AcDbPolyline
 90
4
 70
129
 10
86.586388632342263
 20
102.05
 30
0.0
 10
86.586388632342263
 20
98.850000000000051
 30
0.0
 10
104.55
 20
98.850000000000051
 30
0.0
 10
104.55
 20
102.05
 30
0.0
  0
LWPOLYLINE
  5
9A
  8
Corte exterior
 62
256
370
-1
 48
1.0
  6
ByLayer
100
AcDbEntity
100
AcDbPolyline
 90
4
 70
129
 10
114.75
 20
102.05
 30
0.0
 10
114.75
 20
98.850000000000051
 30
0.0
 10
132.71361136765771
 20
98.850000000000051
 30
0.0
 10
132.71361136765771
 20
102.05
 30
0.0
  0
LWPOLYLINE
  5
9B
  8
Corte exterior
 62
256
370
-1
 48
1.0
  6
ByLayer
100
AcDbEntity
100
AcDbPolyline
 90
4
 70
129
 10
43.068208672199347
 20
97.954383992142283
 30
0.0
 42
0.7288869919277884
 10
42.485394556691269
 20
99.766989497147236
 30
0.0
 10
23.82484269180225
 20
99.766989497147236
 30
0.0
 42
0.7288869919277761
 10
23.242028576293961
 20
97.954383992142283
 30
0.0
 42
0.3215338990745147
  0
LWPOLYLINE
  5
9C
  8
Corte exterior
 62
256
370
-1
 48
1.0
  6
ByLayer
100
AcDbEntity
100
AcDbPolyline
 90
2
 70
128
 10
68.650000000000048
 20
57.114317768258019
 30
0.0
 10
68.650000000000048
 20
59.113319657669066
 30
0.0
  0
LWPOLYLINE
  5
9D
  8
Corte exterior
 62
256
370
-1
 48
1.0
  6
ByLayer
100
AcDbEntity
100
AcDbPolyline
 90
4
 70
128
 10
68.650001657155968
 20
72.314316087332003
 30
0.0
 10
65.650001657155954
 20
72.314316087332003
 30
0.0
 10
65.650000000000034
 20
77.91431776825803
 30
0.0
 10
68.650000000000048
 20
77.91431776825803
 30
0.0
  0
LWPOLYLINE
  5
9E
  8
Corte exterior
 62
256
370
-1
 48
1.0
  6
ByLayer
100
AcDbEntity
100
AcDbPolyline
 90
3
 70
128
 10
65.650000000000034
 20
65.114317768258033
 30
0.0
 10
65.650001657155954
 20
68.914316087331969
 30
0.0
 10
68.650001657155968
 20
68.914316087331969
 30
0.0
  0
LWPOLYLINE
  5
9F
  8
Corte exterior
 62
256
370
-1
 48
1.0
  6
ByLayer
100
AcDbEntity
100
AcDbPolyline
 90
4
 70
128
 10
68.650001657155968
 20
52.314316087331989
 30
0.0
 10
65.650001657155954
 20
52.314316087331989
 30
0.0
 10
65.650000000000034
 20
57.91431776825803
 30
0.0
 10
68.650000000000048
 20
57.91431776825803
 30
0.0
  0
LWPOLYLINE
  5
A0
  8
Corte exterior
 62
256
370
-1
 48
1.0
  6
ByLayer
100
AcDbEntity
100
AcDbPolyline
 90
87
 70
128
 10
68.650000000000048
 20
81.314317768258036
 30
0.0
 10
65.650000000000034
 20
81.314317768258036
 30
0.0
 10
65.650000000000034
 20
85.114317768258033
 30
0.0
 10
46.193399999999933
 20
85.114317768258033
 30
0.0
 42
-0.4058662606592696
 10
41.195442379436038
 20
89.97142052179386
 30
0.0
 42
-0.4226104260174182
 10
42.195033903548847
 20
90.999999971086666
 30
0.0
 10
43.155178284926357
 20
90.999999971086709
 30
0.0
 42
0.3153053613537751
 10
58.15517828492635
 20
105.99999997108659
 30
0.0
 10
58.15517828492635
 20
117.99999997108669
 30
0.0
 42
0.4919757508463953
 10
58.155178284926443
 20
129.99999997108659
 30
0.0
 10
58.155178284926322
 20
135.99999997108671
 30
0.0
 42
0.4142135623730955
 10
46.522461559392127
 20
156.23881245779711
 30
0.0
 42
0.0952559970176108
 10
40.921685284194062
 20
159.0
 30
0.0
 42
-0.0530187582776014
 10
39.6438689786455
 20
155.74449253708181
 30
0.0
 42
0.1073843461634053
 10
33.421685284194368
 20
159.0
 30
0.0
 42
-0.0530187582776041
 10
32.143868978645699
 20
155.7444925370815
 30
0.0
 42
0.1073843461634092
 10
25.921685284194069
 20
159.0
 30
0.0
 42
-0.0775922149975665
 10
23.827504010867131
 20
154.34768037452599
 30
0.0
 42
0.0936025973227678
 10
18.743639844752739
 20
156.56301833249779
 30
0.0
 42
-0.0775665588300306
 10
16.65037995514777
 20
151.91211183806641
 30
0.0
 42
0.1232477612155334
 10
10.281485006921381
 20
154.38337238942
 30
0.0
 42
0.1489231150964842
 10
8.1551782849263574
 20
135.99999997108671
 30
0.0
 10
8.1551782849264516
 20
129.99999997108671
 30
0.0
 42
0.4919757508464079
 10
8.1551782849264463
 20
117.99999997108669
 30
0.0
 10
8.1551782849263752
 20
105.99999997108669
 30
0.0
 42
0.3153053613537725
 10
23.155178284926269
 20
90.999999971086709
 30
0.0
 10
24.110047137255549
 20
90.999999971086694
 30
0.0
 42
-0.4227067486491479
 10
25.109629265507749
 20
89.971093762778096
 30
0.0
 42
-0.4057710781923056
 10
20.111718624246649
 20
85.115624804321229
 30
0.0
 10
0.6500000000000628
 20
85.115624804321229
 30
0.0
 10
0.6500000000000628
 20
81.115624804321257
 30
0.0
 10
3.6500000000000621
 20
81.115624804321257
 30
0.0
 10
3.6500000000000621
 20
78.115624804321271
 30
0.0
 10
0.6500000000000628
 20
78.115624804321271
 30
0.0
 10
0.6500016571559401
 20
72.115623123395181
 30
0.0
 10
3.6500016571559382
 20
72.115623123395181
 30
0.0
 10
3.6500016571559382
 20
69.115623123395181
 30
0.0
 10
0.6500016571559401
 20
69.115623123395181
 30
0.0
 10
0.6500000000000628
 20
65.115624804321229
 30
0.0
 10
0.6500000000000628
 20
61.115624804321222
 30
0.0
 10
3.6500000000000621
 20
61.115624804321222
 30
0.0
 10
3.6500000000000621
 20
58.115624804321222
 30
0.0
 10
0.6500000000000628
 20
58.115624804321222
 30
0.0
 10
0.6500016571559401
 20
52.115623123395167
 30
0.0
 10
3.6500016571559382
 20
52.115623123395167
 30
0.0
 10
3.6500016571559382
 20
49.115623123395167
 30
0.0
 10
0.6500016571559401
 20
49.115623123395167
 30
0.0
 10
0.6500000000000628
 20
23.778274084898161
 30
0.0
 10
0.6500000000000628
 20
14.778274084898159
 30
0.0
 42
0.4142135623730951
 10
1.650000000000063
 20
13.778274084898159
 30
0.0
 10
2.1500000000000612
 20
13.778274084898159
 30
0.0
 42
0.4142135623730951
 10
3.1500000000000621
 20
14.778274084898159
 30
0.0
 10
3.1500000000000621
 20
15.778274084898159
 30
0.0
 42
-0.4142135623730951
 10
4.1500000000000634
 20
16.778274084898161
 30
0.0
 10
5.1500000000000634
 20
16.778274084898161
 30
0.0
 42
-0.4142135623730951
 10
6.1500000000000634
 20
15.778274084898159
 30
0.0
 10
6.1500000000000634
 20
11.77827408489815
 30
0.0
 42
0.4142135623730951
 10
7.1500000000000634
 20
10.77827408489815
 30
0.0
 10
8.1500000000000625
 20
10.77827408489815
 30
0.0
 42
0.4142135623730951
 10
9.1500000000000625
 20
11.77827408489815
 30
0.0
 10
9.1500000000000643
 20
14.452913414879211
 30
0.0
 42
0.065979548813624
 10
8.8047484418206619
 20
17.057876471270351
 30
0.0
 10
6.9915072565889593
 20
23.778274084898161
 30
0.0
 10
9.9915072565889602
 20
23.778274084898161
 30
0.0
 10
9.9915072565889602
 20
2.000000000040242
 30
0.0
 42
0.4142135623730951
 10
10.99150725658896
 20
1.000000000040244
 30
0.0
 10
21.15511862424674
 20
1.000000000040244
 30
0.0
 10
21.15511862424674
 20
5.0000000000402434
 30
0.0
 10
24.15511862424674
 20
5.0000000000402434
 30
0.0
 10
24.15511862424674
 20
1.000000000040242
 30
0.0
 10
27.155118624246651
 20
1.000000000040244
 30
0.0
 42
0.4142135623730951
 10
28.155118624246651
 20
2.0000000000402429
 30
0.0
 10
28.155118624246651
 20
22.77827408489815
 30
0.0
 42
-0.414213562373093
 10
29.155118624246651
 20
23.778274084898161
 30
0.0
 10
37.15511862424674
 20
23.778274084898161
 30
0.0
 42
-0.4142135623730971
 10
38.15511862424674
 20
22.778274084898161
 30
0.0
 10
38.155118624246647
 20
2.000000000040266
 30
0.0
 42
0.4142135623731054
 10
39.15511862424674
 20
1.0000000000402161
 30
0.0
 10
42.15511862424674
 20
1.000000000040244
 30
0.0
 10
42.15511862424674
 20
5.0000000000402434
 30
0.0
 10
45.155118624246732
 20
5.0000000000402434
 30
0.0
 10
45.155118624246732
 20
1.000000000040244
 30
0.0
 10
55.318729991904441
 20
1.000000000040244
 30
0.0
 42
0.4142135623730911
 10
56.318729991904448
 20
2.000000000040258
 30
0.0
 10
56.318729991904448
 20
23.778274084898161
 30
0.0
 10
59.318729991904448
 20
23.778274084898161
 30
0.0
 10
57.286451499675472
 20
38.250771236726322
 30
0.0
  0
LWPOLYLINE
  5
A1
  8
Corte exterior
 62
256
370
-1
 48
1.0
  6
ByLayer
100
AcDbEntity
100
AcDbPolyline
 90
2
 70
128
 10
6.9915072565889593
 20
23.778274084898161
 30
0.0
 10
9.02714086415018
 20
38.255627761792809
 30
0.0
  0
LWPOLYLINE
  5
A2
  8
Corte exterior
 62
256
370
-1
 48
1.0
  6
ByLayer
100
AcDbEntity
100
AcDbPolyline
 90
3
 70
128
 10
57.148147711942691
 20
61.285922672981741
 30
0.0
 42
0.2041855609426062
 10
55.11511386569935
 20
53.713552466532391
 30
0.0
 10
57.147392357928332
 20
39.241055314704226
 30
0.0
  0
LWPOLYLINE
  5
A3
  8
grabado linea medio
 62
256
370
-1
 48
1.0
  6
ByLayer
100
AcDbEntity
100
AcDbPolyline
 90
3
 70
0
 10
94.500000000000014
 20
0.9999999999999978
 30
0.0
 10
94.500000000000043
 20
98.0
 30
0.0
 10
68.650001657155968
 20
98.0
 30
0.0
  0
LWPOLYLINE
  5
A4
  8
Corte exterior
 62
256
370
-1
 48
1.0
  6
ByLayer
100
AcDbEntity
100
AcDbPolyline
 90
17
 70
128
 10
68.650001657155968
 20
48.914316087331969
 30
0.0
 10
65.650000000000034
 20
48.914316087331969
 30
0.0
 10
65.66023724849336
 20
14.778274084898159
 30
0.0
 42
-0.4142135623730951
 10
64.660237248493345
 20
13.778274084898159
 30
0.0
 10
64.16023724849336
 20
13.778274084898159
 30
0.0
 42
-0.4142135623730703
 10
63.16023724849348
 20
14.778274084898131
 30
0.0
 10
63.160237248493459
 20
15.778274084898159
 30
0.0
 42
0.4142135623730951
 10
62.160237248493459
 20
16.778274084898161
 30
0.0
 10
61.160237248493459
 20
16.778274084898161
 30
0.0
 42
0.4142135623730951
 10
60.160237248493459
 20
15.778274084898159
 30
0.0
 10
60.160237248493459
 20
11.77827408489815
 30
0.0
 42
-0.4142135623730951
 10
59.160237248493452
 20
10.77827408489815
 30
0.0
 10
58.160237248493459
 20
10.77827408489815
 30
0.0
 42
-0.4142135623730951
 10
57.160237248493459
 20
11.77827408489815
 30
0.0
 10
57.160237248493473
 20
14.452913414879591
 30
0.0
 42
-0.0659795488136132
 10
57.505488806672751
 20
17.05787647127034
 30
0.0
 10
59.318729991904448
 20
23.778274084898161
 30
0.0
  0
CIRCLE
  5
A5
100
AcDbEntity
100
AcDbCircle
  8
Corte exterior
 62
256
370
-1
 48
1.0
  6
ByLayer
 10
109.55
 20
88.850000000000037
 30
0.0
 40
5.0
  0
LWPOLYLINE
  5
A6
  8
grabado linea medio
 62
256
370
-1
 48
1.0
  6
ByLayer
100
AcDbEntity
100
AcDbPolyline
 90
4
 70
0
 10
130.60000000000011
 20
0.9999999999999998
 30
0.0
 10
130.60000000000011
 20
47.700000000000003
 30
0.0
 10
112.59999999999999
 20
47.700000000000003
 30
0.0
 10
112.59999999999999
 20
0.9999999999999998
 30
0.0
  0
LWPOLYLINE
  5
A7
  8
grabado linea medio
 62
256
370
-1
 48
1.0
  6
ByLayer
100
AcDbEntity
100
AcDbPolyline
 90
4
 70
0
 10
148.19999999999999
 20
0.9999999999999998
 30
0.0
 10
148.19999999999999
 20
58.200000000000003
 30
0.0
 10
95.0
 20
58.200000000000003
 30
0.0
 10
95.0
 20
0.9999999999999998
 30
0.0
  0
LWPOLYLINE
  5
A8
  8
grabado linea medio
 62
256
370
-1
 48
1.0
  6
ByLayer
100
AcDbEntity
100
AcDbPolyline
 90
4
 70
0
 10
132.69999999999999
 20
67.5
 30
0.0
 10
149.0
 20
67.5
 30
0.0
 10
149.0
 20
77.5
 30
0.0
 10
132.69999999999999
 20
77.5
 30
0.0
  0
LWPOLYLINE
  5
A9
  8
grabado linea medio
 62
256
370
-1
 48
1.0
  6
ByLayer
100
AcDbEntity
100
AcDbPolyline
 90
3
 70
0
 10
80.449999999999974
 20
143.90000000000001
 30
0.0
 10
80.449999999999974
 20
148.59999999999999
 30
0.0
 10
68.650000000000048
 20
148.59999999999999
 30
0.0
  0
LWPOLYLINE
  5
AA
  8
grabado linea medio
 62
256
370
-1
 48
1.0
  6
ByLayer
100
AcDbEntity
100
AcDbPolyline
 90
3
 70
0
 10
149.0
 20
148.59999999999999
 30
0.0
 10
137.19999999999999
 20
148.59999999999999
 30
0.0
 10
137.19999999999999
 20
143.90000000000001
 30
0.0
  0
LWPOLYLINE
  5
AB
  8
grabado linea medio
 62
256
370
-1
 48
1.0
  6
ByLayer
100
AcDbEntity
100
AcDbPolyline
 90
4
 70
0
 10
149.0
 20
116.0
 30
0.0
 10
137.19999999999999
 20
116.0
 30
0.0
 10
137.19999999999999
 20
116.0
 30
0.0
 10
137.19999999999999
 20
120.7
 30
0.0
  0
LWPOLYLINE
  5
AC
  8
grabado linea medio
 62
256
370
-1
 48
1.0
  6
ByLayer
100
AcDbEntity
100
AcDbPolyline
 90
4
 70
0
 10
80.449999999999974
 20
120.7
 30
0.0
 10
80.449999999999974
 20
116.0
 30
0.0
 10
68.650000000000048
 20
116.0
 30
0.0
 10
68.650000000000048
 20
116.0
 30
0.0
  0
LWPOLYLINE
  5
AD
  8
Corte exterior
 62
256
370
-1
 48
1.0
  6
ByLayer
100
AcDbEntity
100
AcDbPolyline
 90
3
 70
128
 10
9.1663793124563302
 20
39.245886644365093
 30
0.0
 10
11.20201292001755
 20
53.723240321259738
 30
0.0
 42
0.2040753553975528
 10
9.1651845904055076
 20
61.290558959259542
 30
0.0
  0
LWPOLYLINE
  5
AE
  8
Corte exterior
 62
256
370
-1
 48
1.0
  6
ByLayer
100
AcDbEntity
100
AcDbPolyline
 90
3
 70
128
 10
8.5094237767476226
 20
62.044975753654782
 30
0.0
 42
0.2040753553975527
 10
1.299424094294751
 20
65.115624804321229
 30
0.0
 10
0.6500000000000628
 20
65.115624804321229
 30
0.0
  0
LWPOLYLINE
  5
AF
  8
Corte exterior
 62
256
370
-1
 48
1.0
  6
ByLayer
100
AcDbEntity
100
AcDbPolyline
 90
5
 70
128
 10
68.650000000000048
 20
61.31431776825805
 30
0.0
 10
65.650000000000034
 20
61.31431776825805
 30
0.0
 10
65.650000000000034
 20
65.114317768258033
 30
0.0
 10
65.01652066319447
 20
65.114317768258033
 30
0.0
 42
0.2041855609426065
 10
57.803589206570891
 20
62.040616910083372
 30
0.0
  0
ENDSEC
  0
SECTION
  2
OBJECTS
  0
DICTIONARY
  5
C
100
AcDbDictionary
280
0
281
1
  3
ACAD_GROUP
350
D
  3
ACAD_LAYOUT
350
1A
  3
ACAD_MLINESTYLE
350
17
  3
ACAD_PLOTSETTINGS
350
19
  3
ACAD_PLOTSTYLENAME
350
E
  3
AcDbVariableDictionary
350
B0
  3
QCAD_OBJECTS
350
B1
  0
DICTIONARY
  5
D
100
AcDbDictionary
280
0
281
1
  0
ACDBDICTIONARYWDFLT
  5
E
100
AcDbDictionary
281
1
  3
Normal
350
F
100
AcDbDictionaryWithDefault
340
F
  0
ACDBPLACEHOLDER
  5
F
  0
DICTIONARY
  5
17
100
AcDbDictionary
280
0
281
1
  3
Standard
350
18
  0
MLINESTYLE
  5
18
100
AcDbMlineStyle
  2
STANDARD
 70
0
  3

 62
256
 51
90.0
 52
90.0
 71
2
 49
0.5
 62
256
  6
BYLAYER
 49
-0.5
 62
256
  6
BYLAYER
  0
DICTIONARY
  5
19
100
AcDbDictionary
280
0
281
1
  0
DICTIONARY
  5
1A
100
AcDbDictionary
281
1
  3
Layout1
350
1E
  3
Layout2
350
26
  3
Model
350
22
  0
LAYOUT
  5
1E
100
AcDbPlotSettings
  1

  2
none_device
  4

  6

 40
0.0
 41
0.0
 42
0.0
 43
0.0
 44
0.0
 45
0.0
 46
0.0
 47
0.0
 48
0.0
 49
0.0
140
0.0
141
0.0
142
1.0
143
1.0
 70
688
 72
0
 73
0
 74
5
  7

 75
16
147
1.0
148
0.0
149
0.0
100
AcDbLayout
  1
Layout1
 70
1
 71
1
 10
0.0
 20
0.0
 11
420.0
 21
297.0
 12
0.0
 22
0.0
 32
0.0
 14
100000000000000000000.0
 24
100000000000000000000.0
 34
100000000000000000000.0
 15
-100000000000000000000.0
 25
-100000000000000000000.0
 35
-100000000000000000000.0
146
0.0
 13
0.0
 23
0.0
 33
0.0
 16
1.0
 26
0.0
 36
0.0
 17
0.0
 27
1.0
 37
0.0
 76
0
330
1B
  0
LAYOUT
  5
22
100
AcDbPlotSettings
  1

  2
none_device
  4

  6

 40
0.0
 41
0.0
 42
0.0
 43
0.0
 44
0.0
 45
0.0
 46
0.0
 47
0.0
 48
0.0
 49
0.0
140
0.0
141
0.0
142
1.0
143
1.0
 70
1712
 72
0
 73
0
 74
0
  7

 75
0
147
1.0
148
0.0
149
0.0
100
AcDbLayout
  1
Model
 70
1
 71
0
 10
0.0
 20
0.0
 11
12.0
 21
9.0
 12
0.0
 22
0.0
 32
0.0
 14
0.0
 24
0.0
 34
0.0
 15
0.0
 25
0.0
 35
0.0
146
0.0
 13
0.0
 23
0.0
 33
0.0
 16
1.0
 26
0.0
 36
0.0
 17
0.0
 27
1.0
 37
0.0
 76
0
330
1F
  0
LAYOUT
  5
26
100
AcDbPlotSettings
  1

  2
none_device
  4

  6

 40
0.0
 41
0.0
 42
0.0
 43
0.0
 44
0.0
 45
0.0
 46
0.0
 47
0.0
 48
0.0
 49
0.0
140
0.0
141
0.0
142
1.0
143
1.0
 70
688
 72
0
 73
0
 74
5
  7

 75
16
147
1.0
148
0.0
149
0.0
100
AcDbLayout
  1
Layout2
 70
1
 71
2
 10
0.0
 20
0.0
 11
12.0
 21
9.0
 12
0.0
 22
0.0
 32
0.0
 14
0.0
 24
0.0
 34
0.0
 15
0.0
 25
0.0
 35
0.0
146
0.0
 13
0.0
 23
0.0
 33
0.0
 16
1.0
 26
0.0
 36
0.0
 17
0.0
 27
1.0
 37
0.0
 76
0
330
23
  0
DICTIONARY
  5
B0
100
AcDbDictionary
281
1
  3
DIMASSOC
350
B3
  3
HIDETEXT
350
B2
  0
DICTIONARYVAR
  5
B2
100
DictionaryVariables
280
0
  1
2
  0
DICTIONARYVAR
  5
B3
100
DictionaryVariables
280
0
  1
1
  0
DICTIONARY
  5
B1
100
AcDbDictionary
281
1
  3
ACAD_CIP_PREVIOUS_PRODUCT_INFO
350
B4
  3
ColorSettings/BackgroundColor
350
B5
  3
ColorSettings/ColorMode
350
B6
  3
Grid/DisplayGrid00
350
B7
  3
Grid/DisplayGrid01
350
B8
  3
Grid/DisplayGrid02
350
B9
  3
Grid/DisplayGrid03
350
BA
  3
Grid/GridSpacingX00
350
BB
  3
Grid/GridSpacingX01
350
BC
  3
Grid/GridSpacingX02
350
BD
  3
Grid/GridSpacingX03
350
BE
  3
Grid/GridSpacingY00
350
BF
  3
Grid/GridSpacingY01
350
C0
  3
Grid/GridSpacingY02
350
C1
  3
Grid/GridSpacingY03
350
C2
  3
Grid/IsometricGrid00
350
C3
  3
Grid/IsometricGrid01
350
C4
  3
Grid/IsometricGrid02
350
C5
  3
Grid/IsometricGrid03
350
C6
  3
Grid/IsometricProjection00
350
C7
  3
Grid/IsometricProjection01
350
C8
  3
Grid/IsometricProjection02
350
C9
  3
Grid/IsometricProjection03
350
CA
  3
Grid/MetaGridSpacingX00
350
CB
  3
Grid/MetaGridSpacingX01
350
CC
  3
Grid/MetaGridSpacingX02
350
CD
  3
Grid/MetaGridSpacingX03
350
CE
  3
Grid/MetaGridSpacingY00
350
CF
  3
Grid/MetaGridSpacingY01
350
D0
  3
Grid/MetaGridSpacingY02
350
D1
  3
Grid/MetaGridSpacingY03
350
D2
  3
MultiPageSettings/Columns
350
D3
  3
MultiPageSettings/GlueMarginsBottom
350
D4
  3
MultiPageSettings/GlueMarginsLeft
350
D5
  3
MultiPageSettings/GlueMarginsRight
350
D6
  3
MultiPageSettings/GlueMarginsTop
350
D7
  3
MultiPageSettings/PrintCropMarks
350
D8
  3
MultiPageSettings/Rows
350
D9
  3
PageSettings/OffsetX
350
DA
  3
PageSettings/OffsetY
350
DB
  3
PageSettings/PageOrientation
350
DC
  3
PageSettings/PaperHeight
350
DD
  3
PageSettings/PaperWidth
350
DE
  3
PageSettings/Scale
350
DF
  3
PageSettings/ShowPaperBorders
350
E0
  3
QCADVersion
350
E1
  3
UnitSettings/PaperUnit
350
E2
  3
ViewportCenter
350
E3
  3
ViewportHeight
350
E4
  3
ViewportWidth
350
E5
  0
XRECORD
  5
B5
330
B1
100
AcDbXrecord
280
1
1000
Blanca
  0
XRECORD
  5
B6
330
B1
100
AcDbXrecord
280
1
1000
FullColor
  0
XRECORD
  5
B7
330
B1
100
AcDbXrecord
280
1
290
1
  0
XRECORD
  5
B8
330
B1
100
AcDbXrecord
280
1
290
1
  0
XRECORD
  5
B9
330
B1
100
AcDbXrecord
280
1
290
1
  0
XRECORD
  5
BA
330
B1
100
AcDbXrecord
280
1
290
1
  0
XRECORD
  5
BB
330
B1
100
AcDbXrecord
280
1
1000
auto
  0
XRECORD
  5
BC
330
B1
100
AcDbXrecord
280
1
1000
auto
  0
XRECORD
  5
BD
330
B1
100
AcDbXrecord
280
1
1000
auto
  0
XRECORD
  5
BE
330
B1
100
AcDbXrecord
280
1
1000
auto
  0
XRECORD
  5
BF
330
B1
100
AcDbXrecord
280
1
1000
auto
  0
XRECORD
  5
C0
330
B1
100
AcDbXrecord
280
1
1000
auto
  0
XRECORD
  5
C1
330
B1
100
AcDbXrecord
280
1
1000
auto
  0
XRECORD
  5
C2
330
B1
100
AcDbXrecord
280
1
1000
auto
  0
XRECORD
  5
C3
330
B1
100
AcDbXrecord
280
1
290
0
  0
XRECORD
  5
C4
330
B1
100
AcDbXrecord
280
1
290
0
  0
XRECORD
  5
C5
330
B1
100
AcDbXrecord
280
1
290
0
  0
XRECORD
  5
C6
330
B1
100
AcDbXrecord
280
1
290
0
  0
XRECORD
  5
C7
330
B1
100
AcDbXrecord
280
1
 90
0
  0
XRECORD
  5
C8
330
B1
100
AcDbXrecord
280
1
 90
0
  0
XRECORD
  5
C9
330
B1
100
AcDbXrecord
280
1
 90
0
  0
XRECORD
  5
CA
330
B1
100
AcDbXrecord
280
1
 90
0
  0
XRECORD
  5
CB
330
B1
100
AcDbXrecord
280
1
1000
auto
  0
XRECORD
  5
CC
330
B1
100
AcDbXrecord
280
1
1000
auto
  0
XRECORD
  5
CD
330
B1
100
AcDbXrecord
280
1
1000
auto
  0
XRECORD
  5
CE
330
B1
100
AcDbXrecord
280
1
1000
auto
  0
XRECORD
  5
CF
330
B1
100
AcDbXrecord
280
1
1000
auto
  0
XRECORD
  5
D0
330
B1
100
AcDbXrecord
280
1
1000
auto
  0
XRECORD
  5
D1
330
B1
100
AcDbXrecord
280
1
1000
auto
  0
XRECORD
  5
D2
330
B1
100
AcDbXrecord
280
1
1000
auto
  0
XRECORD
  5
D3
330
B1
100
AcDbXrecord
280
1
 90
1
  0
XRECORD
  5
D4
330
B1
100
AcDbXrecord
280
1
 40
10.0
  0
XRECORD
  5
D5
330
B1
100
AcDbXrecord
280
1
 40
10.0
  0
XRECORD
  5
D6
330
B1
100
AcDbXrecord
280
1
 40
10.0
  0
XRECORD
  5
D7
330
B1
100
AcDbXrecord
280
1
 40
10.0
  0
XRECORD
  5
D8
330
B1
100
AcDbXrecord
280
1
290
0
  0
XRECORD
  5
D9
330
B1
100
AcDbXrecord
280
1
 90
1
  0
XRECORD
  5
DA
330
B1
100
AcDbXrecord
280
1
 40
0.0
  0
XRECORD
  5
DB
330
B1
100
AcDbXrecord
280
1
 40
0.0
  0
XRECORD
  5
DC
330
B1
100
AcDbXrecord
280
1
1000
Portrait
  0
XRECORD
  5
DD
330
B1
100
AcDbXrecord
280
1
 40
279.39999999999998
  0
XRECORD
  5
DE
330
B1
100
AcDbXrecord
280
1
 40
215.90000000000001
  0
XRECORD
  5
DF
330
B1
100
AcDbXrecord
280
1
1000
1:1
  0
XRECORD
  5
E0
330
B1
100
AcDbXrecord
280
1
290
1
  0
XRECORD
  5
E1
330
B1
100
AcDbXrecord
280
1
1000
3.15.2
  0
XRECORD
  5
E2
330
B1
100
AcDbXrecord
280
1
 90
4
  0
XRECORD
  5
E4
330
B1
100
AcDbXrecord
280
1
 40
179.12299465240639
  0
XRECORD
  5
E5
330
B1
100
AcDbXrecord
280
1
 40
364.1604278074866
  0
ENDSEC
  0
EOF
