999
dxflib 3.12.2.0
  0
SECTION
  2
HEADER
  9
$ACADVER
  1
AC1015
  9
$HANDSEED
  5
FFFF
  9
$ANGBASE
 50
0.0
  9
$ATTMODE
 70
1
  9
$AUNITS
 70
0
  9
$AUPREC
 70
0
  9
$CELTSCALE
 40
1.0
  9
$CHAMFERA
 40
0.0
  9
$CHAMFERB
 40
0.0
  9
$CHAMFERC
 40
0.0
  9
$CHAMFERD
 40
0.0
  9
$CMLJUST
 70
0
  9
$CMLSCALE
 40
1.0
  9
$DIMADEC
 70
0
  9
$DIMALTD
 70
3
  9
$DIMALTF
 40
0.03937007874016
  9
$DIMALTRND
 40
0.0
  9
$DIMALTTD
 70
2
  9
$DIMALTTZ
 70
0
  9
$DIMALTU
 70
2
  9
$DIMALTZ
 70
0
  9
$DIMAPOST
  1

  9
$DIMASZ
 40
2.5
  9
$DIMATFIT
 70
3
  9
$DIMAUNIT
 70
0
  9
$DIMAZIN
 70
0
  9
$DIMCEN
 40
2.5
  9
$DIMDEC
 70
4
  9
$DIMDLE
 40
0.0
  9
$DIMDLI
 40
3.75
  9
$DIMDSEP
 70
46
  9
$DIMEXE
 40
1.25
  9
$DIMEXO
 40
0.625
  9
$DIMFRAC
 70
0
  9
$DIMGAP
 40
0.625
  9
$DIMJUST
 70
0
  9
$DIMLFAC
 40
1.0
  9
$DIMLUNIT
 70
2
  9
$DIMLWD
 70
-2
  9
$DIMLWE
 70
-2
  9
$DIMPOST
  1

  9
$DIMRND
 40
0.0
  9
$DIMSCALE
 40
1.0
  9
$DIMTAD
 70
1
  9
$DIMTDEC
 70
4
  9
$DIMTFAC
 40
1.0
  9
$DIMTM
 40
0.0
  9
$DIMTOLJ
 70
1
  9
$DIMTP
 40
0.0
  9
$DIMTSZ
 40
0.0
  9
$DIMTVP
 40
0.0
  9
$DIMTXT
 40
2.5
  9
$DIMTZIN
 70
0
  9
$DIMZIN
 70
8
  9
$DWGCODEPAGE
  3
ANSI_1252
  9
$ELEVATION
 40
0.0
  9
$EXTMAX
 10
150.0
 20
160.0
 30
0.0
  9
$EXTMIN
 10
0.0
 20
0.0
 30
0.0
  9
$FILLETRAD
 40
5.0
  9
$INSBASE
 10
0.0
 20
0.0
 30
0.0
  9
$INSUNITS
 70
0
  9
$LIMMAX
 10
420.0
 20
297.0
  9
$LIMMIN
 10
0.0
 20
0.0
  9
$LTSCALE
 40
1.0
  9
$LUNITS
 70
2
  9
$LUPREC
 70
4
  9
$MAXACTVP
 70
2
  9
$MEASUREMENT
 70
0
  9
$PDMODE
 70
0
  9
$PDSIZE
 40
0.0
  9
$PELEVATION
 40
0.0
  9
$PEXTMAX
 10
9.9287257582933517
 20
7.5991666710079731
 30
0.0000000349246037
  9
$PEXTMIN
 10
1.049636599258094
 20
0.3333892899584683
 30
-0.0015258207003583
  9
$PINSBASE
 10
0.0
 20
0.0
 30
0.0
  9
$PLIMMAX
 10
10.75
 20
8.25
  9
$PLIMMIN
 10
-0.25
 20
-0.25
  9
$PLINEWID
 40
0.0
  9
$PROXYGRAPHICS
 70
1
  9
$PUCSORG
 10
0.0
 20
0.0
 30
0.0
  9
$PUCSXDIR
 10
1.0
 20
0.0
 30
0.0
  9
$PUCSYDIR
 10
0.0
 20
1.0
 30
0.0
  9
$SHADEDGE
 70
3
  9
$SHADEDIF
 70
70
  9
$SKETCHINC
 40
1.0
  9
$SPLINESEGS
 70
8
  9
$SPLINETYPE
 70
6
  9
$SURFTAB1
 70
6
  9
$SURFTAB2
 70
6
  9
$SURFTYPE
 70
6
  9
$SURFU
 70
6
  9
$SURFV
 70
6
  9
$TEXTSIZE
 40
2.5
  9
$THICKNESS
 40
0.0
  9
$TRACEWID
 40
1.0
  9
$TREEDEPTH
 70
3020
  9
$UCSORG
 10
0.0
 20
0.0
 30
0.0
  9
$UCSXDIR
 10
1.0
 20
0.0
 30
0.0
  9
$UCSYDIR
 10
0.0
 20
1.0
 30
0.0
  9
$UNITMODE
 70
0
  9
$USERI1
 70
0
  9
$USERI2
 70
0
  9
$USERI3
 70
0
  9
$USERI4
 70
0
  9
$USERI5
 70
0
  9
$USERR1
 40
0.0
  9
$USERR2
 40
0.0
  9
$USERR3
 40
0.0
  9
$USERR4
 40
0.0
  9
$USERR5
 40
0.0
  0
ENDSEC
  0
SECTION
  2
TABLES
  0
TABLE
  2
VPORT
  5
8
100
AcDbSymbolTable
 70
1
  0
VPORT
  5
30
100
AcDbSymbolTableRecord
100
AcDbViewportTableRecord
  2
*Active
 70
0
 10
0.0
 20
0.0
 11
1.0
 21
1.0
 12
286.30555555555549
 22
148.5
 13
0.0
 23
0.0
 14
10.0
 24
10.0
 15
10.0
 25
10.0
 16
0.0
 26
0.0
 36
1.0
 17
0.0
 27
0.0
 37
0.0
 40
297.0
 41
1.92798353909465
 42
50.0
 43
0.0
 44
0.0
 50
0.0
 51
0.0
 71
0
 72
100
 73
1
 74
3
 75
1
 76
1
 77
0
 78
0
281
0
 65
1
110
0.0
120
0.0
130
0.0
111
1.0
121
0.0
131
0.0
112
0.0
122
1.0
132
0.0
 79
0
146
0.0
  0
ENDTAB
  0
TABLE
  2
LTYPE
  5
5
100
AcDbSymbolTable
 70
50
  0
LTYPE
  5
16
100
AcDbSymbolTableRecord
100
AcDbLinetypeTableRecord
  2
Continuous
 70
0
  3
Solid line
 72
65
 73
0
 40
0.0
  0
LTYPE
  5
31
100
AcDbSymbolTableRecord
100
AcDbLinetypeTableRecord
  2
ACAD_ISO15W100
 70
0
  3
ISO double-dash triple-dot __ __ . . . __ __ . .
 72
65
 73
10
 40
39.0
 49
12.0
 74
0
 49
-3.0
 74
0
 49
12.0
 74
0
 49
-3.0
 74
0
 49
0.0
 74
0
 49
-3.0
 74
0
 49
0.0
 74
0
 49
-3.0
 74
0
 49
0.0
 74
0
 49
-3.0
 74
0
  0
LTYPE
  5
32
100
AcDbSymbolTableRecord
100
AcDbLinetypeTableRecord
  2
HOT_WATER_SUPPLY
 70
0
  3
Hot water supply ---- HW ---- HW ---- HW ----
 72
65
 73
3
 40
22.859999999999999
 49
12.699999999999999
 74
0
 49
-5.0800000000000001
 74
0
 49
-5.0800000000000001
 74
0
  0
LTYPE
  5
33
100
AcDbSymbolTableRecord
100
AcDbLinetypeTableRecord
  2
DIVIDE
 70
0
  3
Divide ____ . . ____ . . ____ . . ____ . . ____
 72
65
 73
6
 40
31.749999999999993
 49
12.699999999999999
 74
0
 49
-6.349999999999997
 74
0
 49
0.0
 74
0
 49
-6.349999999999997
 74
0
 49
0.0
 74
0
 49
-6.349999999999997
 74
0
  0
LTYPE
  5
34
100
AcDbSymbolTableRecord
100
AcDbLinetypeTableRecord
  2
ACAD_ISO10W100
 70
0
  3
ISO dash dot __ . __ . __ . __ . __ . __ . __ . 
 72
65
 73
4
 40
18.0
 49
12.0
 74
0
 49
-3.0
 74
0
 49
0.0
 74
0
 49
-3.0
 74
0
  0
LTYPE
  5
35
100
AcDbSymbolTableRecord
100
AcDbLinetypeTableRecord
  2
GAS_LINE
 70
0
  3
Gas line ----GAS----GAS----GAS----GAS----GAS----GAS--
 72
65
 73
3
 40
24.129999999999999
 49
12.699999999999999
 74
0
 49
-5.0800000000000001
 74
0
 49
-6.349999999999997
 74
0
  0
LTYPE
  5
36
100
AcDbSymbolTableRecord
100
AcDbLinetypeTableRecord
  2
ACAD_ISO04W100
 70
0
  3
ISO long-dash dot ____ . ____ . ____ . ____ . _
 72
65
 73
4
 40
30.0
 49
24.0
 74
0
 49
-3.0
 74
0
 49
0.0
 74
0
 49
-3.0
 74
0
  0
LTYPE
  5
14
100
AcDbSymbolTableRecord
100
AcDbLinetypeTableRecord
  2
ByBlock
 70
0
  3

 72
65
 73
0
 40
0.0
  0
LTYPE
  5
37
100
AcDbSymbolTableRecord
100
AcDbLinetypeTableRecord
  2
CENTER2
 70
0
  3
Center (.5x) ___ _ ___ _ ___ _ ___ _ ___ _ ___
 72
65
 73
4
 40
28.574999999999992
 49
19.050000000000001
 74
0
 49
-3.174999999999998
 74
0
 49
3.174999999999998
 74
0
 49
-3.174999999999998
 74
0
  0
LTYPE
  5
38
100
AcDbSymbolTableRecord
100
AcDbLinetypeTableRecord
  2
ACAD_ISO11W100
 70
0
  3
ISO double-dash dot __ __ . __ __ . __ __ . __ _
 72
65
 73
6
 40
33.0
 49
12.0
 74
0
 49
-3.0
 74
0
 49
12.0
 74
0
 49
-3.0
 74
0
 49
0.0
 74
0
 49
-3.0
 74
0
  0
LTYPE
  5
39
100
AcDbSymbolTableRecord
100
AcDbLinetypeTableRecord
  2
HIDDEN2
 70
0
  3
Hidden (.5x) _ _ _ _ _ _ _ _ _ _ _ _ _ _ _ _ _ 
 72
65
 73
2
 40
4.7624999999999975
 49
3.174999999999998
 74
0
 49
-1.587499999999999
 74
0
  0
LTYPE
  5
3A
100
AcDbSymbolTableRecord
100
AcDbLinetypeTableRecord
  2
BORDERX2
 70
0
  3
Border (2x) ____  ____  .  ____  ____  .  ___
 72
65
 73
6
 40
88.899999999999991
 49
25.399999999999999
 74
0
 49
-12.699999999999999
 74
0
 49
25.399999999999999
 74
0
 49
-12.699999999999999
 74
0
 49
0.0
 74
0
 49
-12.699999999999999
 74
0
  0
LTYPE
  5
3B
100
AcDbSymbolTableRecord
100
AcDbLinetypeTableRecord
  2
ACAD_ISO05W100
 70
0
  3
ISO long-dash double-dot ____ .. ____ .. ____ . 
 72
65
 73
6
 40
33.0
 49
24.0
 74
0
 49
-3.0
 74
0
 49
0.0
 74
0
 49
-3.0
 74
0
 49
0.0
 74
0
 49
-3.0
 74
0
  0
LTYPE
  5
3C
100
AcDbSymbolTableRecord
100
AcDbLinetypeTableRecord
  2
DASHDOTX2
 70
0
  3
Dash dot (2x) ____  .  ____  .  ____  .  ___
 72
65
 73
4
 40
50.799999999999997
 49
25.399999999999999
 74
0
 49
-12.699999999999999
 74
0
 49
0.0
 74
0
 49
-12.699999999999999
 74
0
  0
LTYPE
  5
3D
100
AcDbSymbolTableRecord
100
AcDbLinetypeTableRecord
  2
HIDDENX2
 70
0
  3
Hidden (2x) ____ ____ ____ ____ ____ ____ ____ 
 72
65
 73
2
 40
19.049999999999997
 49
12.699999999999999
 74
0
 49
-6.349999999999997
 74
0
  0
LTYPE
  5
3E
100
AcDbSymbolTableRecord
100
AcDbLinetypeTableRecord
  2
CENTERX2
 70
0
  3
Center (2x) ________  __  ________  __  _____
 72
65
 73
4
 40
101.60000000000001
 49
63.5
 74
0
 49
-12.699999999999999
 74
0
 49
12.699999999999999
 74
0
 49
-12.699999999999999
 74
0
  0
LTYPE
  5
3F
100
AcDbSymbolTableRecord
100
AcDbLinetypeTableRecord
  2
BORDER2
 70
0
  3
Border (.5x) __.__.__.__.__.__.__.__.__.__.__.
 72
65
 73
6
 40
22.224999999999987
 49
6.349999999999997
 74
0
 49
-3.174999999999998
 74
0
 49
6.349999999999997
 74
0
 49
-3.174999999999998
 74
0
 49
0.0
 74
0
 49
-3.174999999999998
 74
0
  0
LTYPE
  5
40
100
AcDbSymbolTableRecord
100
AcDbLinetypeTableRecord
  2
DASHDOT2
 70
0
  3
Dash dot (.5x) _._._._._._._._._._._._._._._.
 72
65
 73
4
 40
12.699999999999992
 49
6.349999999999997
 74
0
 49
-3.174999999999998
 74
0
 49
0.0
 74
0
 49
-3.174999999999998
 74
0
  0
LTYPE
  5
41
100
AcDbSymbolTableRecord
100
AcDbLinetypeTableRecord
  2
ACAD_ISO12W100
 70
0
  3
ISO dash double-dot __ . . __ . . __ . . __ . . 
 72
65
 73
6
 40
21.0
 49
12.0
 74
0
 49
-3.0
 74
0
 49
0.0
 74
0
 49
-3.0
 74
0
 49
0.0
 74
0
 49
-3.0
 74
0
  0
LTYPE
  5
42
100
AcDbSymbolTableRecord
100
AcDbLinetypeTableRecord
  2
ACAD_ISO07W100
 70
0
  3
ISO dot . . . . . . . . . . . . . . . . . . . . 
 72
65
 73
2
 40
3.0
 49
0.0
 74
0
 49
-3.0
 74
0
  0
LTYPE
  5
43
100
AcDbSymbolTableRecord
100
AcDbLinetypeTableRecord
  2
ACAD_ISO06W100
 70
0
  3
ISO long-dash triple-dot ____ ... ____ ... ____
 72
65
 73
8
 40
36.0
 49
24.0
 74
0
 49
-3.0
 74
0
 49
0.0
 74
0
 49
-3.0
 74
0
 49
0.0
 74
0
 49
-3.0
 74
0
 49
0.0
 74
0
 49
-3.0
 74
0
  0
LTYPE
  5
44
100
AcDbSymbolTableRecord
100
AcDbLinetypeTableRecord
  2
CENTER
 70
0
  3
Center ____ _ ____ _ ____ _ ____ _ ____ _ ____
 72
65
 73
4
 40
50.799999999999983
 49
31.75
 74
0
 49
-6.349999999999997
 74
0
 49
6.349999999999997
 74
0
 49
-6.349999999999997
 74
0
  0
LTYPE
  5
45
100
AcDbSymbolTableRecord
100
AcDbLinetypeTableRecord
  2
HIDDEN
 70
0
  3
Hidden __ __ __ __ __ __ __ __ __ __ __ __ __ __
 72
65
 73
2
 40
9.524999999999995
 49
6.349999999999997
 74
0
 49
-3.174999999999998
 74
0
  0
LTYPE
  5
46
100
AcDbSymbolTableRecord
100
AcDbLinetypeTableRecord
  2
DOTX2
 70
0
  3
Dot (2x) .  .  .  .  .  .  .  .  .  .  .  .  .  .
 72
65
 73
2
 40
12.699999999999999
 49
0.0
 74
0
 49
-12.699999999999999
 74
0
  0
LTYPE
  5
47
100
AcDbSymbolTableRecord
100
AcDbLinetypeTableRecord
  2
PHANTOM
 70
0
  3
Phantom ______  __  __  ______  __  __  ______ 
 72
65
 73
6
 40
63.499999999999972
 49
31.75
 74
0
 49
-6.349999999999997
 74
0
 49
6.349999999999997
 74
0
 49
-6.349999999999997
 74
0
 49
6.349999999999997
 74
0
 49
-6.349999999999997
 74
0
  0
LTYPE
  5
48
100
AcDbSymbolTableRecord
100
AcDbLinetypeTableRecord
  2
ACAD_ISO08W100
 70
0
  3
ISO long-dash short-dash ____ __ ____ __ ____ _
 72
65
 73
4
 40
36.0
 49
24.0
 74
0
 49
-3.0
 74
0
 49
6.0
 74
0
 49
-3.0
 74
0
  0
LTYPE
  5
49
100
AcDbSymbolTableRecord
100
AcDbLinetypeTableRecord
  2
DASHEDX2
 70
0
  3
Dashed (2x) ____  ____  ____  ____  ____  ___
 72
65
 73
2
 40
38.099999999999994
 49
25.399999999999999
 74
0
 49
-12.699999999999999
 74
0
  0
LTYPE
  5
4A
100
AcDbSymbolTableRecord
100
AcDbLinetypeTableRecord
  2
DRAINAGE
 70
0
  3
Drainage ---->---->---->----
 72
65
 73
2
 40
10.16
 49
5.0800000000000001
 74
0
 49
5.0800000000000001
 74
0
  0
LTYPE
  5
4B
100
AcDbSymbolTableRecord
100
AcDbLinetypeTableRecord
  2
ACAD_ISO02W100
 70
0
  3
ISO dash __ __ __ __ __ __ __ __ __ __ __ __ __
 72
65
 73
2
 40
15.0
 49
12.0
 74
0
 49
-3.0
 74
0
  0
LTYPE
  5
4C
100
AcDbSymbolTableRecord
100
AcDbLinetypeTableRecord
  2
PHANTOM2
 70
0
  3
Phantom (.5x) ___ _ _ ___ _ _ ___ _ _ ___ _ _
 72
65
 73
6
 40
31.749999999999986
 49
15.875
 74
0
 49
-3.174999999999998
 74
0
 49
3.174999999999998
 74
0
 49
-3.174999999999998
 74
0
 49
3.174999999999998
 74
0
 49
-3.174999999999998
 74
0
  0
LTYPE
  5
4D
100
AcDbSymbolTableRecord
100
AcDbLinetypeTableRecord
  2
DASHED2
 70
0
  3
Dashed (.5x) _ _ _ _ _ _ _ _ _ _ _ _ _ _ _ _ _ 
 72
65
 73
2
 40
9.524999999999995
 49
6.349999999999997
 74
0
 49
-3.174999999999998
 74
0
  0
LTYPE
  5
4E
100
AcDbSymbolTableRecord
100
AcDbLinetypeTableRecord
  2
ACAD_ISO09W100
 70
0
  3
ISO long-dash double-short-dash ____ __ __ ____
 72
65
 73
6
 40
45.0
 49
24.0
 74
0
 49
-3.0
 74
0
 49
6.0
 74
0
 49
-3.0
 74
0
 49
6.0
 74
0
 49
-3.0
 74
0
  0
LTYPE
  5
4F
100
AcDbSymbolTableRecord
100
AcDbLinetypeTableRecord
  2
ACAD_ISO13W100
 70
0
  3
ISO double-dash double-dot __ __ . . __ __ . . _
 72
65
 73
8
 40
36.0
 49
12.0
 74
0
 49
-3.0
 74
0
 49
12.0
 74
0
 49
-3.0
 74
0
 49
0.0
 74
0
 49
-3.0
 74
0
 49
0.0
 74
0
 49
-3.0
 74
0
  0
LTYPE
  5
50
100
AcDbSymbolTableRecord
100
AcDbLinetypeTableRecord
  2
TRACKS
 70
0
  3
Tracks -|-|-|-|-|-|-|-|-|-|-|-|-|-|-|-|-|-|-|-|-|-|-|-|-
 72
65
 73
2
 40
7.6200000000000001
 49
3.8100000000000001
 74
0
 49
3.8100000000000001
 74
0
  0
LTYPE
  5
51
100
AcDbSymbolTableRecord
100
AcDbLinetypeTableRecord
  2
DRAINAGE2
 70
0
  3
Drainage reversed----<----<----<----
 72
65
 73
2
 40
10.16
 49
5.0800000000000001
 74
0
 49
5.0800000000000001
 74
0
  0
LTYPE
  5
52
100
AcDbSymbolTableRecord
100
AcDbLinetypeTableRecord
  2
DOT2
 70
0
  3
Dot (.5x) ........................................
 72
65
 73
2
 40
3.174999999999998
 49
0.0
 74
0
 49
-3.174999999999998
 74
0
  0
LTYPE
  5
53
100
AcDbSymbolTableRecord
100
AcDbLinetypeTableRecord
  2
ZIGZAG
 70
0
  3
Zig zag /\/\/\/\/\/\/\/\/\/\/\/\/\/\/\/\/\/\/\/\/\/\/\/
 72
65
 73
4
 40
20.32254
 49
0.00254
 74
0
 49
-5.0800000000000001
 74
0
 49
-10.16
 74
0
 49
-5.0800000000000001
 74
0
  0
LTYPE
  5
54
100
AcDbSymbolTableRecord
100
AcDbLinetypeTableRecord
  2
DASHED
 70
0
  3
Dashed __ __ __ __ __ __ __ __ __ __ __ __ __ _
 72
65
 73
2
 40
19.049999999999997
 49
12.699999999999999
 74
0
 49
-6.349999999999997
 74
0
  0
LTYPE
  5
55
100
AcDbSymbolTableRecord
100
AcDbLinetypeTableRecord
  2
ACAD_ISO14W100
 70
0
  3
ISO dash triple-dot __ . . . __ . . . __ . . . _
 72
65
 73
8
 40
24.0
 49
12.0
 74
0
 49
-3.0
 74
0
 49
0.0
 74
0
 49
-3.0
 74
0
 49
0.0
 74
0
 49
-3.0
 74
0
 49
0.0
 74
0
 49
-3.0
 74
0
  0
LTYPE
  5
56
100
AcDbSymbolTableRecord
100
AcDbLinetypeTableRecord
  2
PHANTOMX2
 70
0
  3
Phantom (2x) ____________    ____    ____   _
 72
65
 73
6
 40
127.00000000000001
 49
63.5
 74
0
 49
-12.699999999999999
 74
0
 49
12.699999999999999
 74
0
 49
-12.699999999999999
 74
0
 49
12.699999999999999
 74
0
 49
-12.699999999999999
 74
0
  0
LTYPE
  5
57
100
AcDbSymbolTableRecord
100
AcDbLinetypeTableRecord
  2
DIVIDEX2
 70
0
  3
Divide (2x) ________  .  .  ________  .  .  _
 72
65
 73
6
 40
63.5
 49
25.399999999999999
 74
0
 49
-12.699999999999999
 74
0
 49
0.0
 74
0
 49
-12.699999999999999
 74
0
 49
0.0
 74
0
 49
-12.699999999999999
 74
0
  0
LTYPE
  5
58
100
AcDbSymbolTableRecord
100
AcDbLinetypeTableRecord
  2
BORDER
 70
0
  3
Border __ __ . __ __ . __ __ . __ __ . __ __ .
 72
65
 73
6
 40
44.449999999999989
 49
12.699999999999999
 74
0
 49
-6.349999999999997
 74
0
 49
12.699999999999999
 74
0
 49
-6.349999999999997
 74
0
 49
0.0
 74
0
 49
-6.349999999999997
 74
0
  0
LTYPE
  5
59
100
AcDbSymbolTableRecord
100
AcDbLinetypeTableRecord
  2
DIVIDE2
 70
0
  3
Divide (.5x) __..__..__..__..__..__..__..__.._
 72
65
 73
6
 40
15.874999999999989
 49
6.349999999999997
 74
0
 49
-3.174999999999998
 74
0
 49
0.0
 74
0
 49
-3.174999999999998
 74
0
 49
0.0
 74
0
 49
-3.174999999999998
 74
0
  0
LTYPE
  5
5A
100
AcDbSymbolTableRecord
100
AcDbLinetypeTableRecord
  2
DOT
 70
0
  3
Dot . . . . . . . . . . . . . . . . . . . . . . . .
 72
65
 73
2
 40
6.349999999999997
 49
0.0
 74
0
 49
-6.349999999999997
 74
0
  0
LTYPE
  5
5B
100
AcDbSymbolTableRecord
100
AcDbLinetypeTableRecord
  2
DASHDOT
 70
0
  3
Dash dot __ . __ . __ . __ . __ . __ . __ . __
 72
65
 73
4
 40
25.399999999999995
 49
12.699999999999999
 74
0
 49
-6.349999999999997
 74
0
 49
0.0
 74
0
 49
-6.349999999999997
 74
0
  0
LTYPE
  5
5C
100
AcDbSymbolTableRecord
100
AcDbLinetypeTableRecord
  2
FENCELINE1
 70
0
  3
Fenceline circle ----0-----0----0-----0----0-----0--
 72
65
 73
4
 40
36.829999999999998
 49
6.349999999999997
 74
0
 49
-2.54
 74
0
 49
-2.54
 74
0
 49
25.399999999999999
 74
0
  0
LTYPE
  5
5D
100
AcDbSymbolTableRecord
100
AcDbLinetypeTableRecord
  2
BATTING
 70
0
  3
Batting SSSSSSSSSSSSSSSSSSSSSSSSSSSSSSSSSSSSSSSSSSSSSSS
 72
65
 73
4
 40
10.16254
 49
0.00254
 74
0
 49
-2.54
 74
0
 49
-5.0800000000000001
 74
0
 49
-2.54
 74
0
  0
LTYPE
  5
5E
100
AcDbSymbolTableRecord
100
AcDbLinetypeTableRecord
  2
ACAD_ISO03W100
 70
0
  3
ISO dash space __    __    __    __    __    __
 72
65
 73
2
 40
30.0
 49
12.0
 74
0
 49
-18.0
 74
0
  0
LTYPE
  5
15
100
AcDbSymbolTableRecord
100
AcDbLinetypeTableRecord
  2
ByLayer
 70
0
  3

 72
65
 73
0
 40
0.0
  0
LTYPE
  5
5F
100
AcDbSymbolTableRecord
100
AcDbLinetypeTableRecord
  2
FENCELINE2
 70
0
  3
Fenceline square ----[]-----[]----[]-----[]----[]---
 72
65
 73
4
 40
36.829999999999998
 49
6.349999999999997
 74
0
 49
-2.54
 74
0
 49
-2.54
 74
0
 49
25.399999999999999
 74
0
  0
ENDTAB
  0
TABLE
  2
LAYER
  5
2
100
AcDbSymbolTable
 70
4
  0
LAYER
  5
60
100
AcDbSymbolTableRecord
100
AcDbLayerTableRecord
  2
grabado linea medio
 70
0
 62
3
420
65280
  6
Continuous
370
-3
390
F
  0
LAYER
  5
61
100
AcDbSymbolTableRecord
100
AcDbLayerTableRecord
  2
mesa de trabajo y auxiliares
 70
1
 62
-7
420
16777215
  6
Continuous
370
-3
390
F
  0
LAYER
  5
62
100
AcDbSymbolTableRecord
100
AcDbLayerTableRecord
  2
Corte exterior
 70
0
 62
1
420
16711680
  6
Continuous
370
-3
390
F
  0
LAYER
  5
10
100
AcDbSymbolTableRecord
100
AcDbLayerTableRecord
  2
0
 70
0
 62
7
420
16777215
  6
Continuous
370
-3
390
F
  0
ENDTAB
  0
TABLE
  2
STYLE
  5
3
100
AcDbSymbolTable
 70
1
  0
STYLE
  5
63
100
AcDbSymbolTableRecord
100
AcDbTextStyleTableRecord
  2
Standard
 70
0
 40
0.0
 41
1.0
 50
0.0
 71
0
 42
2.5
  3

  4

1001
ACAD
1000
txt
1071
0
  0
ENDTAB
  0
TABLE
  2
VIEW
  5
6
100
AcDbSymbolTable
 70
0
  0
ENDTAB
  0
TABLE
  2
UCS
  5
7
100
AcDbSymbolTable
 70
0
  0
ENDTAB
  0
TABLE
  2
APPID
  5
9
100
AcDbSymbolTable
 70
1
  0
APPID
  5
12
100
AcDbSymbolTableRecord
100
AcDbRegAppTableRecord
  2
ACAD
 70
0
  0
APPID
  5
64
100
AcDbSymbolTableRecord
100
AcDbRegAppTableRecord
  2
QCAD
 70
0
  0
ENDTAB
  0
TABLE
  2
DIMSTYLE
  5
A
100
AcDbSymbolTable
 70
1
100
AcDbDimStyleTable
 71
0
  0
DIMSTYLE
105
27
100
AcDbSymbolTableRecord
100
AcDbDimStyleTableRecord
  2
Standard
 41
2.5
 42
0.625
 43
3.75
 44
1.25
 70
0
 73
0
 74
0
 77
1
 78
8
140
2.5
141
2.5
143
0.03937007874016
147
0.625
171
3
172
1
271
2
272
2
274
3
278
44
283
0
284
8
340
63
  0
ENDTAB
  0
TABLE
  2
BLOCK_RECORD
  5
1
100
AcDbSymbolTable
 70
1
  0
BLOCK_RECORD
  5
1F
100
AcDbSymbolTableRecord
100
AcDbBlockTableRecord
  2
*Model_Space
340
22
  0
BLOCK_RECORD
  5
1B
100
AcDbSymbolTableRecord
100
AcDbBlockTableRecord
  2
*Paper_Space
340
1E
  0
BLOCK_RECORD
  5
23
100
AcDbSymbolTableRecord
100
AcDbBlockTableRecord
  2
*Paper_Space0
340
26
  0
BLOCK_RECORD
  5
65
100
AcDbSymbolTableRecord
100
AcDbBlockTableRecord
  2
A$C32B96BB9
340
0
  0
BLOCK_RECORD
  5
66
100
AcDbSymbolTableRecord
100
AcDbBlockTableRecord
  2
$PAPER_SPACE
340
0
  0
BLOCK_RECORD
  5
67
100
AcDbSymbolTableRecord
100
AcDbBlockTableRecord
  2
$MODEL_SPACE
340
0
  0
ENDTAB
  0
ENDSEC
  0
SECTION
  2
BLOCKS
  0
BLOCK
  5
20
100
AcDbEntity
  8
0
100
AcDbBlockBegin
  2
*Model_Space
 70
0
 10
0.0
 20
0.0
 30
0.0
  3
*Model_Space
  1

  0
ENDBLK
  5
21
100
AcDbEntity
  8
0
100
AcDbBlockEnd
  0
BLOCK
  5
1C
100
AcDbEntity
 67
1
  8
0
100
AcDbBlockBegin
  2
*Paper_Space
 70
0
 10
0.0
 20
0.0
 30
0.0
  3
*Paper_Space
  1

  0
ENDBLK
  5
1D
100
AcDbEntity
 67
1
  8
0
100
AcDbBlockEnd
  0
BLOCK
  5
24
100
AcDbEntity
  8
0
100
AcDbBlockBegin
  2
*Paper_Space0
 70
0
 10
0.0
 20
0.0
 30
0.0
  3
*Paper_Space0
  1

  0
ENDBLK
  5
25
100
AcDbEntity
  8
0
100
AcDbBlockEnd
  0
BLOCK
  5
68
100
AcDbEntity
  8
0
100
AcDbBlockBegin
  2
A$C32B96BB9
 70
0
 10
0.0
 20
0.0
 30
0.0
  3
A$C32B96BB9
  1

  0
ENDBLK
  5
69
100
AcDbEntity
  8
0
100
AcDbBlockEnd
  0
BLOCK
  5
6A
100
AcDbEntity
  8
0
100
AcDbBlockBegin
  2
$PAPER_SPACE
 70
0
 10
0.0
 20
0.0
 30
0.0
  3
$PAPER_SPACE
  1

  0
ENDBLK
  5
6B
100
AcDbEntity
  8
0
100
AcDbBlockEnd
  0
BLOCK
  5
6C
100
AcDbEntity
  8
0
100
AcDbBlockBegin
  2
$MODEL_SPACE
 70
0
 10
0.0
 20
0.0
 30
0.0
  3
$MODEL_SPACE
  1

  0
ENDBLK
  5
6D
100
AcDbEntity
  8
0
100
AcDbBlockEnd
  0
ENDSEC
  0
SECTION
  2
ENTITIES
  0
CIRCLE
  5
6E
100
AcDbEntity
100
AcDbCircle
  8
grabado linea medio
 62
256
370
-1
 48
1.0
  6
ByLayer
 10
77.468920963447005
 20
38.127950254175701
 30
0.0
 40
6.0
  0
CIRCLE
  5
6F
100
AcDbEntity
100
AcDbCircle
  8
Corte exterior
 62
256
370
-1
 48
1.0
  6
ByLayer
 10
20.50125745682784
 20
109.5220432620558
 30
0.0
 40
8.0
  0
CIRCLE
  5
70
100
AcDbEntity
100
AcDbCircle
  8
Corte exterior
 62
256
370
-1
 48
1.0
  6
ByLayer
 10
20.501257456827851
 20
109.5220432620558
 30
0.0
 40
8.0
  0
CIRCLE
  5
71
100
AcDbEntity
100
AcDbCircle
  8
Corte exterior
 62
256
370
-1
 48
1.0
  6
ByLayer
 10
46.501257456827837
 20
109.5220432620558
 30
0.0
 40
8.0
  0
LWPOLYLINE
  5
72
  8
grabado linea medio
 62
256
370
-1
 48
1.0
  6
ByLayer
100
AcDbEntity
100
AcDbPolyline
 90
9
 70
0
 10
87.218920963447005
 20
45.827950254175697
 30
0.0
 10
67.718920963447033
 20
45.827950254175711
 30
0.0
 10
67.718920963447033
 20
30.427950254175698
 30
0.0
 10
87.218920963447005
 20
30.427950254175698
 30
0.0
 10
87.218920963447005
 20
33.127950254175708
 30
0.0
 10
103.91892096344699
 20
33.127950254175708
 30
0.0
 10
103.91892096344699
 20
43.127950254175687
 30
0.0
 10
87.218920963447005
 20
43.127950254175722
 30
0.0
 10
87.218920963447005
 20
45.827950254175697
 30
0.0
  0
LWPOLYLINE
  5
73
  8
grabado linea medio
 62
256
370
-1
 48
1.0
  6
ByLayer
100
AcDbEntity
100
AcDbPolyline
 90
4
 70
0
 10
83.599999999999966
 20
113.0
 30
0.0
 10
83.599999999999966
 20
66.299999999999983
 30
0.0
 10
101.59999999999999
 20
66.299999999999983
 30
0.0
 10
101.59999999999999
 20
113.0
 30
0.0
  0
LWPOLYLINE
  5
74
  8
grabado linea medio
 62
256
370
-1
 48
1.0
  6
ByLayer
100
AcDbEntity
100
AcDbPolyline
 90
4
 70
0
 10
149.0
 20
113.0
 30
0.0
 10
124.0
 20
113.0
 30
0.0
 10
124.0
 20
16.0
 30
0.0
 10
149.0
 20
16.0
 30
0.0
  0
LWPOLYLINE
  5
75
  8
grabado linea medio
 62
256
370
-1
 48
1.0
  6
ByLayer
100
AcDbEntity
100
AcDbPolyline
 90
4
 70
0
 10
66.0
 20
55.799999999999983
 30
0.0
 10
119.2
 20
55.799999999999983
 30
0.0
 10
119.2
 20
113.0
 30
0.0
 10
65.999987098086606
 20
113.0000196109241
 30
0.0
  0
LINE
  5
76
100
AcDbEntity
100
AcDbLine
  8
Corte exterior
 62
256
370
-1
 48
1.0
  6
ByLayer
 10
133.8132527429506
 20
127.0
 30
0.0
 11
128.5696369149972
 21
127.0
 31
0.0
  0
LINE
  5
77
100
AcDbEntity
100
AcDbLine
  8
Corte exterior
 62
256
370
-1
 48
1.0
  6
ByLayer
 10
65.999996903156472
 20
113.0000196109205
 30
0.0
 11
65.999992787996803
 21
94.396511393877645
 31
0.0
  0
LINE
  5
78
100
AcDbEntity
100
AcDbLine
  8
Corte exterior
 62
256
370
-1
 48
1.0
  6
ByLayer
 10
65.999992566793367
 20
93.396511393877702
 30
0.0
 11
65.999984894470984
 21
58.712046137659108
 31
0.0
  0
LINE
  5
79
100
AcDbEntity
100
AcDbLine
  8
Corte exterior
 62
256
370
-1
 48
1.0
  6
ByLayer
 10
65.999984673267534
 20
57.712046137659129
 30
0.0
 11
65.99998250051442
 21
47.889625138080021
 31
0.0
  0
LWPOLYLINE
  5
7A
  8
grabado linea medio
 62
256
370
-1
 48
1.0
  6
ByLayer
100
AcDbEntity
100
AcDbPolyline
 90
8
 70
0
 10
66.000000000000014
 20
13.5
 30
0.0
 10
82.300000000000026
 20
13.5
 30
0.0
 10
82.300000000000026
 20
10.0
 30
0.0
 10
120.0
 20
10.0
 30
0.0
 10
120.0
 20
27.0
 30
0.0
 10
82.300000000000026
 20
27.0
 30
0.0
 10
82.300000000000026
 20
23.5
 30
0.0
 10
66.000000000000014
 20
23.5
 30
0.0
  0
LINE
  5
7B
100
AcDbEntity
100
AcDbLine
  8
Corte exterior
 62
256
370
-1
 48
1.0
  6
ByLayer
 10
45.501257456827837
 20
1.0
 30
0.0
 11
61.001371988518102
 21
1.0000000000000011
 31
0.0
  0
CIRCLE
  5
7C
100
AcDbEntity
100
AcDbCircle
  8
Corte exterior
 62
256
370
-1
 48
1.0
  6
ByLayer
 10
107.5
 20
49.5
 30
0.0
 40
5.0
  0
LWPOLYLINE
  5
7D
  8
mesa de trabajo y auxiliares
 62
256
370
-1
 48
1.0
  6
ByLayer
100
AcDbEntity
100
AcDbPolyline
 90
4
 70
129
 10
0.0
 20
0.0
 30
0.0
 10
150.0
 20
0.0
 30
0.0
 10
150.0
 20
160.0
 30
0.0
 10
0.0
 20
160.0
 30
0.0
  0
LWPOLYLINE
  5
7E
  8
mesa de trabajo y auxiliares
 62
256
370
-1
 48
1.0
  6
ACAD_ISO02W100
100
AcDbEntity
100
AcDbPolyline
 90
4
 70
129
 10
1.0
 20
1.0
 30
0.0
 10
149.0
 20
1.0
 30
0.0
 10
149.0
 20
159.0
 30
0.0
 10
1.0
 20
159.0
 30
0.0
  0
ELLIPSE
  5
7F
100
AcDbEntity
100
AcDbEllipse
  8
grabado linea medio
 62
256
370
-1
 48
1.0
  6
ByLayer
 10
11.17754601647091
 20
103.041513782678
 30
0.0
 11
1.897612656515264
 21
-3.992448621888455
 31
0.0
 40
0.3795922024847329
 41
2.6461969712558751
 42
5.7877896248456659
  0
ELLIPSE
  5
80
100
AcDbEntity
100
AcDbEllipse
  8
grabado linea medio
 62
256
370
-1
 48
1.0
  6
ByLayer
 10
55.824968897184789
 20
103.041513782678
 30
0.0
 11
-1.8976126565152649
 21
-3.992448621888447
 31
0.0
 40
0.3795922024847329
 41
0.4953956823339188
 42
3.636988335923709
  0
ARC
  5
81
100
AcDbEntity
  8
grabado linea medio
 62
256
370
-1
 48
1.0
  6
ByLayer
100
AcDbCircle
 10
44.546478296014122
 20
113.81176788194971
 30
0.0
 40
22.437301543966651
100
AcDbArc
 50
73.056148718964906
 51
82.619710725302411
  0
LINE
  5
82
100
AcDbEntity
100
AcDbLine
  8
grabado linea medio
 62
256
370
-1
 48
1.0
  6
ByLayer
 10
43.549728860857748
 20
80.575872219946348
 30
0.0
 11
44.495077188200987
 21
77.69865676172634
 31
0.0
  0
LINE
  5
83
100
AcDbEntity
100
AcDbLine
  8
grabado linea medio
 62
256
370
-1
 48
1.0
  6
ByLayer
 10
23.338049219819929
 20
80.560231925012459
 30
0.0
 11
22.397154942175199
 21
77.681556845861266
 31
0.0
  0
LINE
  5
84
100
AcDbEntity
100
AcDbLine
  8
grabado linea medio
 62
256
370
-1
 48
1.0
  6
ByLayer
 10
12.92199097792744
 20
78.932254445455484
 30
0.0
 11
9.007621803462003
 21
78.320458244367487
 31
0.0
  0
ARC
  5
85
100
AcDbEntity
  8
grabado linea medio
 62
256
370
-1
 48
1.0
  6
ByLayer
100
AcDbCircle
 10
42.219499985341017
 20
51.6327357177029
 30
0.0
 40
24.739088518500282
100
AcDbArc
 50
73.568152715458524
 51
110.6389070263199
  0
LINE
  5
86
100
AcDbEntity
100
AcDbLine
  8
grabado linea medio
 62
256
370
-1
 48
1.0
  6
ByLayer
 10
29.9084784121554
 20
81.73092851997022
 30
0.0
 11
31.143814146002679
 21
75.440357186469882
 31
0.0
  0
LINE
  5
87
100
AcDbEntity
100
AcDbLine
  8
grabado linea medio
 62
256
370
-1
 48
1.0
  6
ByLayer
 10
36.977495710756827
 20
81.736398699460764
 30
0.0
 11
35.751897048232657
 21
75.44392303438309
 31
0.0
  0
ARC
  5
88
100
AcDbEntity
  8
grabado linea medio
 62
256
370
-1
 48
1.0
  6
ByLayer
100
AcDbCircle
 10
53.92113114261138
 20
99.096146200879133
 30
0.0
 40
24.067359234878751
100
AcDbArc
 50
92.764645932231886
 51
102.37292781999659
  0
LINE
  5
89
100
AcDbEntity
100
AcDbLine
  8
grabado linea medio
 62
256
370
-1
 48
1.0
  6
ByLayer
 10
53.294709113100389
 20
50.854645714069989
 30
0.0
 11
49.535855863204958
 21
51.234790189252863
 31
0.0
  0
LINE
  5
8A
100
AcDbEntity
100
AcDbLine
  8
grabado linea medio
 62
256
370
-1
 48
1.0
  6
ByLayer
 10
14.0
 20
50.0
 30
0.0
 11
17.518177322951441
 21
51.115634076675427
 31
0.0
  0
LINE
  5
8B
100
AcDbEntity
100
AcDbLine
  8
grabado linea medio
 62
256
370
-1
 48
1.0
  6
ByLayer
 10
51.901182142945032
 20
38.417803223220638
 30
0.0
 11
52.260879193336478
 21
32.98062854250972
 31
0.0
  0
ARC
  5
8C
100
AcDbEntity
  8
grabado linea medio
 62
256
370
-1
 48
1.0
  6
ByLayer
100
AcDbCircle
 10
35.250628728413929
 20
81.99622762951644
 30
0.0
 40
8.1927206716918342
100
AcDbArc
 50
77.670845927465578
 51
121.2537984885856
  0
LINE
  5
8D
100
AcDbEntity
100
AcDbLine
  8
grabado linea medio
 62
256
370
-1
 48
1.0
  6
ByLayer
 10
16.04213290263543
 20
79.429370855561814
 30
0.0
 11
19.879704004987211
 21
70.471988866578229
 31
0.0
  0
LINE
  5
8E
100
AcDbEntity
100
AcDbLine
  8
grabado linea medio
 62
256
370
-1
 48
1.0
  6
ByLayer
 10
55.855473946707107
 20
44.148714947919849
 30
0.0
 11
65.382162395276211
 21
44.178945218466609
 31
0.0
  0
LINE
  5
8F
100
AcDbEntity
100
AcDbLine
  8
grabado linea medio
 62
256
370
-1
 48
1.0
  6
ByLayer
 10
11.098079270477101
 20
44.159889221438917
 30
0.0
 11
1.555009348281658
 21
44.166957434946603
 31
0.0
  0
LINE
  5
90
100
AcDbEntity
100
AcDbLine
  8
grabado linea medio
 62
256
370
-1
 48
1.0
  6
ByLayer
 10
56.62375762982618
 20
41.636378342861448
 30
0.0
 11
64.702703731597254
 21
41.636378342861391
 31
0.0
  0
LINE
  5
91
100
AcDbEntity
100
AcDbLine
  8
grabado linea medio
 62
256
370
-1
 48
1.0
  6
ByLayer
 10
10.37875728382938
 20
41.636378342861533
 30
0.0
 11
2.2283398944960862
 21
41.636378342861512
 31
0.0
  0
LINE
  5
92
100
AcDbEntity
100
AcDbLine
  8
grabado linea medio
 62
256
370
-1
 48
1.0
  6
ByLayer
 10
53.762718880930422
 20
10.278844596863321
 30
0.0
 11
37.044435461232098
 21
10.00069744486475
 31
0.0
  0
LINE
  5
93
100
AcDbEntity
100
AcDbLine
  8
grabado linea medio
 62
256
370
-1
 48
1.0
  6
ByLayer
 10
13.23979603272522
 20
10.278844596863349
 30
0.0
 11
29.958079452423551
 21
10.00069744486475
 31
0.0
  0
LINE
  5
94
100
AcDbEntity
100
AcDbLine
  8
grabado linea medio
 62
256
370
-1
 48
1.0
  6
ByLayer
 10
53.450390185850551
 20
14.999999999999959
 30
0.0
 11
35.745037057127007
 21
14.999999999999989
 31
0.0
  0
LINE
  5
95
100
AcDbEntity
100
AcDbLine
  8
grabado linea medio
 62
256
370
-1
 48
1.0
  6
ByLayer
 10
53.255383694447652
 20
17.356124122721951
 30
0.0
 11
35.132642849900307
 21
17.35612412272198
 31
0.0
  0
LINE
  5
96
100
AcDbEntity
100
AcDbLine
  8
grabado linea medio
 62
256
370
-1
 48
1.0
  6
ByLayer
 10
13.55212472780511
 20
15.0
 30
0.0
 11
31.257477856528649
 21
14.999999999999989
 31
0.0
  0
LINE
  5
97
100
AcDbEntity
100
AcDbLine
  8
grabado linea medio
 62
256
370
-1
 48
1.0
  6
ByLayer
 10
13.74713121920802
 20
17.35612412272199
 30
0.0
 11
31.869872063755349
 21
17.35612412272198
 31
0.0
  0
LINE
  5
98
100
AcDbEntity
100
AcDbLine
  8
grabado linea medio
 62
256
370
-1
 48
1.0
  6
ByLayer
 10
55.317631766412582
 20
62.372829760993007
 30
0.0
 11
63.138194668348532
 21
74.078258033981214
 31
0.0
  0
LINE
  5
99
100
AcDbEntity
100
AcDbLine
  8
grabado linea medio
 62
256
370
-1
 48
1.0
  6
ByLayer
 10
11.68488314724307
 20
62.372829760993042
 30
0.0
 11
3.864320245307141
 21
74.078258033981285
 31
0.0
  0
LINE
  5
9A
100
AcDbEntity
100
AcDbLine
  8
grabado linea medio
 62
256
370
-1
 48
1.0
  6
ByLayer
 10
60.002514913655673
 20
69.461022627320645
 30
0.0
 11
60.002514913655681
 21
77.415937296931347
 31
0.0
  0
LINE
  5
9B
100
AcDbEntity
100
AcDbLine
  8
grabado linea medio
 62
256
370
-1
 48
1.0
  6
ByLayer
 10
7.0
 20
69.461022627320673
 30
0.0
 11
7.0
 21
77.415937296931389
 31
0.0
  0
LINE
  5
9C
100
AcDbEntity
100
AcDbLine
  8
grabado linea medio
 62
256
370
-1
 48
1.0
  6
ByLayer
 10
51.971305181463592
 20
39.3107578822069
 30
0.0
 11
49.501257456827823
 21
39.300000000000011
 31
0.0
  0
LINE
  5
9D
100
AcDbEntity
100
AcDbLine
  8
grabado linea medio
 62
256
370
-1
 48
1.0
  6
ByLayer
 10
52.348426481669179
 20
44.298717770679723
 30
0.0
 11
49.501257456827823
 21
44.300000000000018
 31
0.0
  0
LINE
  5
9E
100
AcDbEntity
100
AcDbLine
  8
grabado linea medio
 62
256
370
-1
 48
1.0
  6
ByLayer
 10
14.80312515117283
 20
39.34021247354854
 30
0.0
 11
17.501257456827819
 21
39.299999999999997
 31
0.0
  0
LINE
  5
9F
100
AcDbEntity
100
AcDbLine
  8
grabado linea medio
 62
256
370
-1
 48
1.0
  6
ByLayer
 10
15.0
 20
44.299999999999983
 30
0.0
 11
17.501257456827819
 21
44.299999999999983
 31
0.0
  0
LWPOLYLINE
  5
A0
  8
Corte exterior
 62
256
370
-1
 48
1.0
  6
ByLayer
100
AcDbEntity
100
AcDbPolyline
 90
3
 70
0
 10
65.656297566972171
 20
47.910160721150639
 30
0.0
 42
0.0611577877067727
 10
65.0
 20
51.999999999999993
 30
0.0
 42
0.060799508890991
 10
65.819202001874061
 20
57.712082907547462
 30
0.0
  0
LWPOLYLINE
  5
A1
  8
Corte exterior
 62
256
370
-1
 48
1.0
  6
ByLayer
100
AcDbEntity
100
AcDbPolyline
 90
3
 70
0
 10
66.754279325348861
 20
113.71070016375521
 30
0.0
 42
0.2237464565532311
 10
62.345459433094518
 20
103.7133067390193
 30
0.0
 10
65.825541175669699
 20
94.365094834091408
 30
0.0
  0
LWPOLYLINE
  5
A2
  8
Corte exterior
 62
256
370
-1
 48
1.0
  6
ByLayer
100
AcDbEntity
100
AcDbPolyline
 90
17
 70
0
 10
134.8132527429506
 20
127.0
 30
0.0
 10
136.99060814979151
 20
127.0
 30
0.0
 10
136.9906081497916
 20
130.5
 30
0.0
 10
126.9906081497916
 20
130.5
 30
0.0
 10
126.9906081497916
 20
132.5
 30
0.0
 10
136.9906081497916
 20
132.5
 30
0.0
 10
136.9906081497916
 20
136.0
 30
0.0
 10
109.63928080886031
 20
136.0
 30
0.0
 42
-0.3671534595622607
 10
106.0506631695843
 20
138.7178085368763
 30
0.0
 42
0.0463449172764248
 10
105.8238921917918
 20
139.42213123797251
 30
0.0
 42
0.5010300970171661
 10
65.717582998944735
 20
149.1408372734299
 30
0.0
 42
0.9061211450906267
 10
68.394370038123441
 20
146.1485327928898
 30
0.0
 42
-0.3816198040490768
 10
99.593382730440197
 20
141.30590631578531
 30
0.0
 42
-0.1481936962031254
 10
101.1499487854431
 20
137.5558702365974
 30
0.0
 42
0.0607315939581832
 10
101.36170343180081
 20
136.61117728142821
 30
0.0
 42
0.2971741658834672
 10
113.97182444937459
 20
127.0
 30
0.0
 10
127.5696369149972
 20
127.0
 30
0.0
  0
LWPOLYLINE
  5
A3
  8
Corte exterior
 62
256
370
-1
 48
1.0
  6
ByLayer
100
AcDbEntity
100
AcDbPolyline
 90
10
 70
0
 10
12.092093794114071
 20
59.788179875030103
 30
0.0
 10
12.432586948894979
 20
52.567797184174317
 30
0.0
 10
14.0
 20
50.0
 30
0.0
 10
15.0
 20
47.0
 30
0.0
 10
15.0
 20
43.0
 30
0.0
 10
13.23979603272522
 20
10.278844596863349
 30
0.0
 10
1.37866398022252
 20
2.8153821036124631
 30
0.0
 42
0.6588565315060185
 10
1.6641763051044081
 20
1.000000000000381
 30
0.0
 10
21.501257456827801
 20
1.0000000000000151
 30
0.0
 10
6.0011429251376072
 20
0.9999999999999715
 30
0.0
  0
LWPOLYLINE
  5
A4
  8
Corte exterior
 62
256
370
-1
 48
1.0
  6
ByLayer
100
AcDbEntity
100
AcDbPolyline
 90
14
 70
0
 10
55.231028679096923
 20
62.406526839684552
 30
0.0
 42
0.1589770150651368
 10
56.101106755766558
 20
52.110602932427327
 30
0.0
 42
0.1617017677658266
 10
56.68115880687963
 20
41.379639986835301
 30
0.0
 42
0.0860268426149187
 10
55.958418805692141
 20
36.508850302352279
 30
0.0
 42
0.3550568073776507
 10
56.936455175540289
 20
36.40767412616114
 30
0.0
 42
0.1607491496402544
 10
57.95186097343543
 20
39.00261241022784
 30
0.0
 10
58.403233608499669
 20
37.790299174500987
 30
0.0
 42
-0.3642097642061448
 10
57.929966905807973
 20
36.594310610961656
 30
0.0
 42
0.0507176173361631
 10
56.906707813187751
 20
35.8990790098077
 30
0.0
 42
0.4470519489142237
 10
56.999999999999993
 20
34.999999999999979
 30
0.0
 42
0.2501501386726709
 10
63.361050119098323
 20
35.264778692428472
 30
0.0
 42
0.16697642519322
 10
63.78364534749285
 20
35.758376534406473
 30
0.0
 42
0.1174509297651408
 10
64.585343532294743
 20
41.313605278067847
 30
0.0
 42
0.0844384281368816
 10
65.663827377208705
 20
46.910333318237022
 30
0.0
  0
LWPOLYLINE
  5
A5
  8
Corte exterior
 62
256
370
-1
 48
1.0
  6
ByLayer
100
AcDbEntity
100
AcDbPolyline
 90
12
 70
0
 10
65.819202001874061
 20
58.712009445428279
 30
0.0
 42
0.0922370494229287
 10
64.046057918072478
 20
67.242194528887794
 30
0.0
 42
0.0288613724520168
 10
63.901101375335287
 20
72.168241443082081
 30
0.0
 42
0.2156998418642324
 10
58.371035161182753
 20
78.282869491177308
 30
0.0
 10
43.549728860857748
 20
80.575872219946348
 30
0.0
 10
42.60237698329945
 20
83.460002942349547
 30
0.0
 10
49.988169061854457
 20
85.599878573326706
 30
0.0
 42
0.2677521533068897
 10
52.063638734735733
 20
87.763432219242844
 30
0.0
 10
53.501939503643321
 20
93.605641095108666
 30
0.0
 10
64.433646817101604
 20
91.880244896312433
 30
0.0
 10
58.169084665080312
 20
96.578666510328446
 30
0.0
 10
65.526958451377084
 20
94.058526317092472
 30
0.0
  0
SPLINE
  5
A6
  8
Corte exterior
 62
256
370
-1
 48
1.0
  6
ByLayer
100
AcDbEntity
100
AcDbSpline
 70
8
 71
2
 72
94
 73
91
 74
0
 40
0.0
 40
0.0
 40
0.0
 40
0.6011667763958997
 40
0.6011667763958997
 40
2.1472452592134181
 40
2.1472452592134181
 40
3.0010104061567122
 40
3.0010104061567122
 40
3.977580442648005
 40
3.977580442648005
 40
4.8534990317294531
 40
4.8534990317294531
 40
5.674325370908603
 40
5.674325370908603
 40
6.4951517100877556
 40
6.4951517100877556
 40
7.3951905660456001
 40
7.3951905660456001
 40
8.2952294220034481
 40
8.2952294220034481
 40
9.0241245218795356
 40
9.0241245218795356
 40
9.4242108674593901
 40
9.4242108674593901
 40
10.20229202121137
 40
10.20229202121137
 40
11.66565936299885
 40
11.66565936299885
 40
12.684046853079829
 40
12.684046853079829
 40
13.49908873492166
 40
13.49908873492166
 40
14.561607519046291
 40
14.561607519046291
 40
15.16188277168442
 40
15.16188277168442
 40
16.473864551356659
 40
16.473864551356659
 40
17.785846331028921
 40
17.785846331028921
 40
18.78584633102891
 40
18.78584633102891
 40
19.832308485985621
 40
19.832308485985621
 40
20.832308485985632
 40
20.832308485985632
 40
21.832308485985632
 40
21.832308485985632
 40
22.832308485985632
 40
22.832308485985632
 40
23.832308485985632
 40
23.832308485985632
 40
24.832308485985632
 40
24.832308485985632
 40
25.832308485985632
 40
25.832308485985632
 40
26.832308485985632
 40
26.832308485985632
 40
27.682088424876131
 40
27.682088424876131
 40
27.797501876145841
 40
27.797501876145841
 40
28.450297755283199
 40
28.450297755283199
 40
29.090417736168948
 40
29.090417736168948
 40
29.558078890720271
 40
29.558078890720271
 40
30.21987908648731
 40
30.21987908648731
 40
31.200358946968219
 40
31.200358946968219
 40
32.041158190330691
 40
32.041158190330691
 40
32.881957433693159
 40
32.881957433693159
 40
33.084654224680691
 40
33.084654224680691
 40
34.481763602176201
 40
34.481763602176201
 40
35.481763602176201
 40
35.481763602176201
 40
36.11930610943454
 40
36.11930610943454
 40
37.483996701541869
 40
37.483996701541869
 40
37.827258952457058
 40
37.827258952457058
 40
38.468515393281493
 40
38.468515393281493
 40
39.099146005670832
 40
39.099146005670832
 40
39.099146005670832
 10
67.534031961905853
 20
114.3363828767997
 30
0.0
 10
70.727988915622632
 20
116.70058705016049
 30
0.0
 10
74.699175201755651
 20
116.8437718131818
 30
0.0
 10
71.685004644825895
 20
122.53357123025501
 30
0.0
 10
65.922447081625208
 20
119.6609466666221
 30
0.0
 10
70.87408043822586
 20
126.41012579470519
 30
0.0
 10
79.215306586300002
 20
127.1130042677277
 30
0.0
 10
71.00089927160235
 20
128.53943056143419
 30
0.0
 10
65.220005749213328
 20
122.5317313690697
 30
0.0
 10
61.136534738351017
 20
132.21293590302221
 30
0.0
 10
51.085479919734098
 20
135.27508445558021
 30
0.0
 10
51.102914132535908
 20
145.58867149875789
 30
0.0
 10
43.568249759336808
 20
152.63134247163671
 30
0.0
 10
36.033585386137702
 20
159.67401344451531
 30
0.0
 10
25.744643535235809
 20
158.9612321051533
 30
0.0
 10
30.623323515635128
 20
154.27333811806599
 30
0.0
 10
29.983544394512052
 20
147.5377200275347
 30
0.0
 10
29.343765273388989
 20
140.80210193700341
 30
0.0
 10
23.669738081035529
 20
137.11655125823759
 30
0.0
 10
19.69088956606398
 20
144.19330470818019
 30
0.0
 10
12.009581086616461
 20
146.8218356552938
 30
0.0
 10
11.434079105076551
 20
147.0187714732798
 30
0.0
 10
10.82731994916986
 20
146.9759979547716
 30
0.0
 10
4.943626965999206
 20
146.5612267094393
 30
0.0
 10
1.044031460613521
 20
142.13595460475
 30
0.0
 10
12.021804292340679
 20
141.93593333963861
 30
0.0
 10
12.999999999999989
 20
131.0
 30
0.0
 10
5.8833986503720599
 20
132.34980404888381
 30
0.0
 10
1.0000000000000011
 20
127.0
 30
0.0
 10
7.0795313887012572
 20
122.7291661636778
 30
0.0
 10
8.1409867277796177
 20
115.3756611404375
 30
0.0
 10
5.903141609376565
 20
119.73359349426219
 30
0.0
 10
1.0070219209146321
 20
119.8995367698968
 30
0.0
 10
5.5397685180768992
 20
116.4222274465002
 30
0.0
 10
7.315874676646092
 20
110.9924098843569
 30
0.0
 10
5.0484269796203742
 20
109.74718879901231
 30
0.0
 10
7.3414436990555121
 20
103.5125080349637
 30
0.0
 10
9.6344604184906544
 20
97.277827270915196
 30
0.0
 10
13.075633491038211
 20
95.331705284481203
 30
0.0
 10
14.007254834979079
 20
91.547568751862045
 30
0.0
 10
14.93887617891996
 20
87.763432219242844
 30
0.0
 10
15.35257711928611
 20
86.083027565356119
 30
0.0
 10
17.014345851801249
 20
85.599878573326706
 30
0.0
 10
20.65415682694578
 20
84.545321022256445
 30
0.0
 10
24.293967802090329
 20
83.490763471186199
 30
0.0
 10
23.816008510955118
 20
82.025497698099315
 30
0.0
 10
23.338049219819929
 20
80.560231925012459
 30
0.0
 10
18.13002009887369
 20
79.746243185233979
 30
0.0
 10
12.92199097792744
 20
78.932254445455484
 30
0.0
 10
8.7958740914678177
 20
83.220885285074743
 30
0.0
 10
4.669757205008195
 20
87.509516124694017
 30
0.0
 10
3.4516478976707221
 20
86.465422432690445
 30
0.0
 10
2.233538590333251
 20
85.421328740686945
 30
0.0
 10
5.6205801968976248
 20
81.870893492527216
 30
0.0
 10
9.0076218034619995
 20
78.320458244367501
 30
0.0
 10
8.7639656173974441
 20
78.282376008798536
 30
0.0
 10
8.5203094313328886
 20
78.244293773229558
 30
0.0
 10
4.3747932315743103
 20
76.431602640026682
 30
0.0
 10
2.9997131335861398
 20
72.121114450625214
 30
0.0
 10
2.7887495331278611
 20
69.661948683520293
 30
0.0
 10
2.8623805524608259
 20
67.194849094162294
 30
0.0
 10
-0.1828225529623246
 20
59.73048713774935
 30
0.0
 10
1.932029169056225
 20
51.951196452635521
 30
0.0
 10
0.3767002757284281
 20
46.536865321356238
 30
0.0
 10
2.3632239205257179
 20
41.265456271185577
 30
0.0
 10
2.1069265849462382
 20
38.391964520286983
 30
0.0
 10
3.173518685391107
 20
35.711474927325277
 30
0.0
 10
3.3005273954507781
 20
35.392284933898132
 30
0.0
 10
3.596877323530844
 20
35.218531705260531
 30
0.0
 10
6.7095748682545437
 20
33.393522832567569
 30
0.0
 10
9.9583296088693896
 20
34.96359799817894
 30
0.0
 10
10.177712598004931
 20
35.122932783284732
 30
0.0
 10
10.205279461933911
 20
35.392666981487103
 30
0.0
 10
10.232846325862891
 20
35.662401179689468
 30
0.0
 10
10.05023022587525
 20
35.862820314734158
 30
0.0
 10
9.5733341610728502
 20
36.261729627161792
 30
0.0
 10
9.0258963847301725
 20
36.556467438103141
 30
0.0
 10
8.2864380230381496
 20
36.95458818940282
 30
0.0
 10
8.5507792791890171
 20
37.751722118920483
 30
0.0
 10
8.7755272091931555
 20
38.358227293885783
 30
0.0
 10
9.0002751391972922
 20
38.964732468851082
 30
0.0
 10
9.0820463794127981
 20
37.499832829722841
 30
0.0
 10
10.019695772793771
 20
36.371368783535843
 30
0.0
 10
10.55035522469232
 20
36.02542712229031
 30
0.0
 10
10.997574386202841
 20
36.474058494858497
 30
0.0
 10
11.054481010539419
 20
38.972183005010862
 30
0.0
 10
10.26729698132041
 20
41.343723798726998
 30
0.0
 10
12.33097107306445
 20
46.616091623852782
 30
0.0
 10
10.83074058146356
 20
52.075571609385101
 30
0.0
 10
12.937285732780079
 20
57.08489077394696
 30
0.0
 10
11.68488314724307
 20
62.372829760993042
 30
0.0
  0
LWPOLYLINE
  5
A7
  8
Corte exterior
 62
256
370
-1
 48
1.0
  6
ByLayer
100
AcDbEntity
100
AcDbPolyline
 90
2
 70
1
 10
0.0
 20
0.0
 30
0.0
 10
0.0
 20
0.0
 30
0.0
  0
LWPOLYLINE
  5
A8
  8
Corte exterior
 62
256
370
-1
 48
1.0
  6
ByLayer
100
AcDbEntity
100
AcDbPolyline
 90
23
 70
0
 10
21.501257456827801
 20
1.0000000000000151
 30
0.0
 10
21.501257456827808
 20
5.0000000000000124
 30
0.0
 10
24.501257456827801
 20
5.0000000000000284
 30
0.0
 10
24.501257456827851
 20
1.0000000000000051
 30
0.0
 42
0.2891445514653332
 10
28.112209627584861
 20
2.8989019504194031
 30
0.0
 10
33.501257456827851
 20
23.632712687269692
 30
0.0
 10
38.89030528607077
 20
2.898901950419384
 30
0.0
 42
0.2891445514653329
 10
42.501257456827823
 20
0.9999999999999992
 30
0.0
 10
42.501257456827837
 20
5.0
 30
0.0
 10
45.501257456827837
 20
5.0
 30
0.0
 10
45.501257456827837
 20
1.0
 30
0.0
 10
65.338338608549932
 20
1.0
 30
0.0
 42
0.658856531506019
 10
65.623850933433118
 20
2.8153821036124111
 30
0.0
 10
53.762718880930422
 20
10.27884459686334
 30
0.0
 10
52.260879193336478
 20
32.98062854250972
 30
0.0
 10
57.773030600271589
 20
27.202566468974432
 30
0.0
 10
60.0
 20
30.0
 30
0.0
 10
51.901182142945053
 20
38.417803223220638
 30
0.0
 10
52.348131659792159
 20
44.10930863758982
 30
0.0
 10
52.35521886267226
 20
48.662501796404392
 30
0.0
 10
53.294709113100389
 20
50.854645714069989
 30
0.0
 10
54.569927964760723
 20
52.567797184174303
 30
0.0
 10
54.788491217393357
 20
58.592229365145798
 30
0.0
  0
LWPOLYLINE
  5
A9
  8
Corte exterior
 62
256
370
-1
 48
1.0
  6
ByLayer
100
AcDbEntity
100
AcDbPolyline
 90
6
 70
0
 10
34.001257456827837
 20
65.678034017017666
 30
0.0
 10
49.501257456827851
 20
65.678034017017666
 30
0.0
 10
49.501257456827851
 20
33.678034017017687
 30
0.0
 10
17.501257456827808
 20
33.678034017017687
 30
0.0
 10
17.50125745682784
 20
65.678034017017666
 30
0.0
 10
33.001257456827837
 20
65.678034017017666
 30
0.0
  0
LWPOLYLINE
  5
AA
  8
Corte exterior
 62
256
370
-1
 48
1.0
  6
ByLayer
100
AcDbEntity
100
AcDbPolyline
 90
18
 70
0
 10
33.000610768941712
 20
46.69860008162788
 30
0.0
 10
26.500610768941709
 20
46.69860008162788
 30
0.0
 10
26.500610768941709
 20
49.0986000816279
 30
0.0
 10
30.500610768941709
 20
49.0986000816279
 30
0.0
 10
30.500610768941709
 20
52.515916787150367
 30
0.0
 10
21.250610768941701
 20
52.515916787150367
 30
0.0
 10
21.250610768941701
 20
38.515916787150381
 30
0.0
 10
24.650610768941679
 20
38.515916787150381
 30
0.0
 10
24.650610768941679
 20
42.515916787150381
 30
0.0
 10
42.350610768941642
 20
42.515916787150381
 30
0.0
 10
42.350610768941642
 20
38.515916787150381
 30
0.0
 10
45.750610768941662
 20
38.515916787150381
 30
0.0
 10
45.750610768941662
 20
52.515916787150367
 30
0.0
 10
36.486996170963991
 20
52.515916787150367
 30
0.0
 10
36.486996170963991
 20
49.0986000816279
 30
0.0
 10
40.500610768941712
 20
49.0986000816279
 30
0.0
 10
40.500610768941712
 20
46.69860008162788
 30
0.0
 10
34.000610768941712
 20
46.69860008162788
 30
0.0
  0
LWPOLYLINE
  5
AB
  8
Corte exterior
 62
256
370
-1
 48
1.0
  6
ByLayer
100
AcDbEntity
100
AcDbPolyline
 90
7
 70
0
 10
125.9812162995831
 20
127.0
 30
0.0
 10
125.9812162995831
 20
115.2
 30
0.0
 10
102.78121629958299
 20
115.2
 30
0.0
 10
102.78121629958299
 20
127.0
 30
0.0
 10
91.771833148949284
 20
127.0
 30
0.0
 10
91.771824449380745
 20
115.2000166688331
 30
0.0
 10
68.865975332704579
 20
115.2000217356853
 30
0.0
  0
LWPOLYLINE
  5
AC
  8
Corte exterior
 62
256
370
-1
 48
1.0
  6
ByLayer
100
AcDbEntity
100
AcDbPolyline
 90
4
 70
1
 10
16.00125745682784
 20
26.0
 30
0.0
 10
26.00125745682784
 20
26.0
 30
0.0
 10
26.00125745682784
 20
28.899999999999999
 30
0.0
 10
16.00125745682784
 20
28.899999999999999
 30
0.0
  0
LWPOLYLINE
  5
AD
  8
Corte exterior
 62
256
370
-1
 48
1.0
  6
ByLayer
100
AcDbEntity
100
AcDbPolyline
 90
4
 70
1
 10
41.001257456827837
 20
26.0
 30
0.0
 10
51.001257456827851
 20
26.0
 30
0.0
 10
51.001257456827851
 20
28.899999999999999
 30
0.0
 10
41.001257456827837
 20
28.899999999999999
 30
0.0
  0
LWPOLYLINE
  5
AE
  8
grabado linea medio
 62
256
370
-1
 48
1.0
  6
ByLayer
100
AcDbEntity
100
AcDbPolyline
 90
3
 70
0
 10
17.860853713302149
 20
33.678034017017701
 30
0.0
 42
0.1767310653278004
 10
18.999999999999961
 20
31.0
 30
0.0
 42
-0.0618477774233825
 10
20.91222609163211
 20
28.899999999999999
 30
0.0
  0
LWPOLYLINE
  5
AF
  8
grabado linea medio
 62
256
370
-1
 48
1.0
  6
ByLayer
100
AcDbEntity
100
AcDbPolyline
 90
4
 70
0
 10
19.923642940939001
 20
26.0
 30
0.0
 42
-0.0555021390342641
 10
21.0
 20
22.0
 30
0.0
 10
23.0
 20
23.000000000000011
 30
0.0
 42
0.0666747875367908
 10
22.39724735885169
 20
26.0
 30
0.0
  0
LWPOLYLINE
  5
B0
  8
grabado linea medio
 62
256
370
-1
 48
1.0
  6
ByLayer
100
AcDbEntity
100
AcDbPolyline
 90
3
 70
0
 10
18.48561853667227
 20
28.899999999999999
 30
0.0
 42
0.034401708049514
 10
17.0
 20
31.0
 30
0.0
 42
-0.2089953834482707
 10
16.480771130781569
 20
39.309138582734221
 30
0.0
  0
LWPOLYLINE
  5
B1
  8
grabado linea medio
 62
256
370
-1
 48
1.0
  6
ByLayer
100
AcDbEntity
100
AcDbPolyline
 90
4
 70
0
 10
23.00873519445064
 20
28.900000000000009
 30
0.0
 42
-0.0413143441090518
 10
22.349968469704852
 20
30.921382059171108
 30
0.0
 42
0.0621074253375843
 10
22.17722391722992
 20
31.385208573261821
 30
0.0
 42
0.0192505185677517
 10
20.867267861678549
 20
33.67803401701768
 30
0.0
  0
LWPOLYLINE
  5
B2
  8
grabado linea medio
 62
256
370
-1
 48
1.0
  6
ByLayer
100
AcDbEntity
100
AcDbPolyline
 90
3
 70
0
 10
23.554550755797631
 20
33.678034017017687
 30
0.0
 42
-0.0475089079706953
 10
24.471729155630609
 20
31.46983784250671
 30
0.0
 42
0.0539492683357262
 10
25.4814948327348
 20
28.900000000000009
 30
0.0
  0
LWPOLYLINE
  5
B3
  8
grabado linea medio
 62
256
370
-1
 48
1.0
  6
ByLayer
100
AcDbEntity
100
AcDbPolyline
 90
4
 70
0
 10
26.00125745682784
 20
27.998008724186789
 30
0.0
 42
0.111534316290153
 10
30.0
 20
24.0
 30
0.0
 10
28.000000000000011
 20
23.0
 30
0.0
 42
-0.0871589131035374
 10
24.70118339554217
 20
26.0
 30
0.0
  0
LWPOLYLINE
  5
B4
  8
grabado linea medio
 62
256
370
-1
 48
1.0
  6
ByLayer
100
AcDbEntity
100
AcDbPolyline
 90
7
 70
0
 10
33.397194463072417
 20
74.784000233450911
 30
0.0
 42
0.15400141101081
 10
17.782976996990651
 20
75.366017989773951
 30
0.0
 10
20.9501160929739
 20
70.89403423723337
 30
0.0
 42
0.2432800356408047
 10
21.766184991057202
 20
70.471988866578215
 30
0.0
 10
45.236329922598493
 20
70.471988866578215
 30
0.0
 42
0.243280035640805
 10
46.05239882068178
 20
70.89403423723337
 30
0.0
 10
49.21953791666504
 20
75.366017989773937
 30
0.0
  0
LWPOLYLINE
  5
B5
  8
grabado linea medio
 62
256
370
-1
 48
1.0
  6
ByLayer
100
AcDbEntity
100
AcDbPolyline
 90
4
 70
0
 10
19.882962409068831
 20
70.471988866578215
 30
0.0
 10
33.501257456827851
 20
66.954723829868954
 30
0.0
 10
47.12281090866847
 20
70.471988866578215
 30
0.0
 10
50.960382011020251
 20
79.429370855561814
 30
0.0
  0
LWPOLYLINE
  5
B6
  8
grabado linea medio
 62
256
370
-1
 48
1.0
  6
ByLayer
100
AcDbEntity
100
AcDbPolyline
 90
4
 70
0
 10
24.293967802090329
 20
83.490763471186199
 30
0.0
 10
32.38812131118582
 20
81.145655233196024
 30
0.0
 42
0.1419455256465451
 10
34.614393602469931
 20
81.145655233196024
 30
0.0
 10
42.60237698329945
 20
83.460002942349547
 30
0.0
  0
LWPOLYLINE
  5
B7
  8
grabado linea medio
 62
256
370
-1
 48
1.0
  6
ByLayer
100
AcDbEntity
100
AcDbPolyline
 90
5
 70
0
 10
54.514001580093172
 20
123.1562020026653
 30
0.0
 42
-0.0246090416216614
 10
55.127942947820898
 20
123.1332297554103
 30
0.0
 10
54.08384925581732
 20
117.0426832187228
 30
0.0
 42
0.0645299368792063
 10
38.07441264509626
 20
117.9127612953925
 30
0.0
 42
-0.0991424637349953
 10
47.868164594371613
 20
122.39337118458999
 30
0.0
  0
LWPOLYLINE
  5
B8
  8
grabado linea medio
 62
256
370
-1
 48
1.0
  6
ByLayer
100
AcDbEntity
100
AcDbPolyline
 90
4
 70
0
 10
11.722169630148819
 20
122.9049078714764
 30
0.0
 42
-0.1670348572162964
 10
28.822524051750801
 20
117.8695901483443
 30
0.0
 42
0.0645299368792064
 10
12.82190432273428
 20
116.85014680043081
 30
0.0
 10
11.721017938170959
 20
122.9306844346799
 30
0.0
  0
SPLINE
  5
B9
  8
grabado linea medio
 62
256
370
-1
 48
1.0
  6
ByLayer
100
AcDbEntity
100
AcDbSpline
 70
8
 71
2
 72
8
 73
5
 74
0
 40
0.0
 40
0.0
 40
0.0
 40
1.0
 40
1.0
 40
1.517629094245291
 40
1.517629094245291
 40
1.517629094245291
 10
8.1409867277796124
 20
115.3756611404375
 30
0.0
 10
8.7102226348416139
 20
113.06349171065619
 30
0.0
 10
9.2794585419036153
 20
110.7513222808749
 30
0.0
 10
8.0958045218594421
 20
111.4207263079829
 30
0.0
 10
7.315874676646092
 20
110.9924098843569
 30
0.0
  0
SPLINE
  5
BA
  8
grabado linea medio
 62
256
370
-1
 48
1.0
  6
ByLayer
100
AcDbEntity
100
AcDbSpline
 70
8
 71
2
 72
44
 73
41
 74
0
 40
0.0
 40
0.0
 40
0.0
 40
1.0
 40
1.0
 40
2.570796326794893
 40
2.570796326794893
 40
4.1415926535897913
 40
4.1415926535897913
 40
5.1415926535897922
 40
5.1415926535897922
 40
6.0340497921300189
 40
6.0340497921300189
 40
6.2645654932220829
 40
6.2645654932220829
 40
6.9295987529629812
 40
6.9295987529629812
 40
7.3470581185414883
 40
7.3470581185414883
 40
7.7251463535047451
 40
7.7251463535047451
 40
8.7284633407772567
 40
8.7284633407772567
 40
8.7963952146351811
 40
8.7963952146351811
 40
9.4017206143919552
 40
9.4017206143919552
 40
9.8293646560491421
 40
9.8293646560491421
 40
10.85903882625421
 40
10.85903882625421
 40
11.338805553921601
 40
11.338805553921601
 40
11.69053157760789
 40
11.69053157760789
 40
12.927188379037849
 40
12.927188379037849
 40
13.991694103296529
 40
13.991694103296529
 40
14.25744414400622
 40
14.25744414400622
 40
15.14990128254645
 40
15.14990128254645
 40
15.14990128254645
 10
53.501939503643321
 20
93.605641095108666
 30
0.0
 10
53.714410463130413
 20
94.468673189794941
 30
0.0
 10
53.926881422617498
 20
95.331705284481203
 30
0.0
 10
58.39767428263724
 20
97.860118734850147
 30
0.0
 10
60.295761757204538
 20
105.569927233047
 30
0.0
 10
62.19384923177185
 20
113.2797357312438
 30
0.0
 10
57.723056371752087
 20
110.7513222808749
 30
0.0
 10
58.497168061116511
 20
113.89567308724411
 30
0.0
 10
59.2712797504809
 20
117.04002389361339
 30
0.0
 10
60.071841589330042
 20
120.29181210210891
 30
0.0
 10
58.042300574028793
 20
122.9556418785665
 30
0.0
 10
57.23628808695144
 20
124.50635783291089
 30
0.0
 10
56.097288697460392
 20
125.8318979081716
 30
0.0
 10
54.940173825805637
 20
122.8222497548069
 30
0.0
 10
52.172434810445871
 20
121.1680074581309
 30
0.0
 10
53.492487127501711
 20
124.82649040332301
 30
0.0
 10
53.215883125336227
 20
128.70599111939609
 30
0.0
 10
52.657036827856459
 20
129.30805418210639
 30
0.0
 10
51.915412487742529
 20
129.66129978199041
 30
0.0
 10
51.868291002285083
 20
124.3580927882151
 30
0.0
 10
47.370988293103018
 20
121.54731118958399
 30
0.0
 10
47.63872735665749
 20
121.9700231912332
 30
0.0
 10
47.877155347112932
 20
122.4099342457189
 30
0.0
 10
50.06823207213229
 20
126.4525756768744
 30
0.0
 10
49.56960867274325
 20
131.0236960714164
 30
0.0
 10
45.764605314788923
 20
132.89297410325011
 30
0.0
 10
41.527017935695852
 20
133.01587291891099
 30
0.0
 10
31.697682343964779
 20
127.7425266358089
 30
0.0
 10
31.154559382805651
 20
116.6012055002595
 30
0.0
 10
27.189370124519051
 20
124.5164356776657
 30
0.0
 10
27.32529096381338
 20
133.36827843162379
 30
0.0
 10
22.582782186741039
 20
132.8356402770691
 30
0.0
 10
18.31411612983991
 20
130.7017276736677
 30
0.0
 10
17.539987575860689
 20
126.0957609673133
 30
0.0
 10
21.637331006008601
 20
123.8538909591382
 30
0.0
 10
16.591630812555241
 20
123.67084263264398
 30
0.0
 10
13.9847016278918
 20
127.9947895978828
 30
0.0
 10
11.13568522479193
 20
125.8110087216253
 30
0.0
 10
8.9602143396269192
 20
122.9556418785665
 30
0.0
 10
7.0630949317953426
 20
120.77201402200259
 30
0.0
 10
7.572858554020045
 20
117.9246584570987
 30
0.0
  0
LWPOLYLINE
  5
BB
  8
grabado linea medio
 62
256
370
-1
 48
1.0
  6
ByLayer
100
AcDbEntity
100
AcDbPolyline
 90
3
 70
0
 10
125.9812162995831
 20
115.2
 30
0.0
 10
130.68121629958301
 20
115.2
 30
0.0
 10
130.68121629958301
 20
127.0
 30
0.0
  0
LWPOLYLINE
  5
BC
  8
grabado linea medio
 62
256
370
-1
 48
1.0
  6
ByLayer
100
AcDbEntity
100
AcDbPolyline
 90
3
 70
0
 10
98.081216299583076
 20
127.0
 30
0.0
 10
98.081216299583076
 20
115.2
 30
0.0
 10
102.78121629958299
 20
115.2
 30
0.0
  0
LWPOLYLINE
  5
BD
  8
Corte exterior
 62
256
370
-1
 48
1.0
  6
ByLayer
100
AcDbEntity
100
AcDbPolyline
 90
14
 70
0
 10
65.999982279310984
 20
46.889625138080063
 30
0.0
 10
65.999972905966686
 20
4.5153064035401469
 30
0.0
 10
89.899986452983157
 20
4.5011865497010843
 30
0.0
 10
89.899986452983299
 20
1.007653201770077
 30
0.0
 10
100.0999864529833
 20
1.007653201770077
 30
0.0
 10
100.0999864529833
 20
4.5076532017700739
 30
0.0
 10
114.8999864529833
 20
4.5076532017700739
 30
0.0
 10
114.8999864529833
 20
1.007653201770077
 30
0.0
 10
125.0999864529833
 20
1.007653201770077
 30
0.0
 10
125.0999864529833
 20
4.5076532017700748
 30
0.0
 10
149.0
 20
4.5
 30
0.0
 10
149.0
 20
115.2
 30
0.0
 10
136.99060814979151
 20
115.2
 30
0.0
 10
136.99060814979151
 20
127.0
 30
0.0
  0
CIRCLE
  5
BE
100
AcDbEntity
100
AcDbCircle
  8
grabado linea medio
 62
256
370
-1
 48
1.0
  6
ByLayer
 10
53.037933598149714
 20
68.964275991086851
 30
0.0
 40
3.800728286089504
  0
SPLINE
  5
BF
  8
grabado linea medio
 62
256
370
-1
 48
1.0
  6
ByLayer
100
AcDbEntity
100
AcDbSpline
 70
8
 71
3
 72
66
 73
62
 74
0
 40
0.0
 40
0.0
 40
0.0
 40
0.0
 40
1.0
 40
2.0
 40
3.0
 40
4.0
 40
5.0
 40
6.0
 40
7.0
 40
8.0
 40
9.0
 40
10.0
 40
11.0
 40
12.0
 40
13.0
 40
14.0
 40
15.0
 40
16.0
 40
17.0
 40
18.0
 40
19.0
 40
20.0
 40
21.0
 40
22.0
 40
23.0
 40
24.0
 40
25.0
 40
26.0
 40
27.0
 40
28.0
 40
29.0
 40
30.0
 40
31.0
 40
32.0
 40
33.0
 40
34.0
 40
35.0
 40
36.0
 40
37.0
 40
38.0
 40
39.0
 40
40.0
 40
41.0
 40
42.0
 40
43.0
 40
44.0
 40
45.0
 40
46.0
 40
47.0
 40
48.0
 40
49.0
 40
50.0
 40
51.0
 40
52.0
 40
53.0
 40
54.0
 40
55.0
 40
56.0
 40
57.0
 40
58.0
 40
59.0
 40
59.0
 40
59.0
 40
59.0
 10
51.458406070802383
 20
71.337281534494295
 30
0.0
 10
51.755877633837379
 20
71.131339683162381
 30
0.0
 10
52.144878908575457
 20
71.314399106568544
 30
0.0
 10
52.190643764426987
 20
71.577547027714886
 30
0.0
 10
52.0
 20
72.0
 30
0.0
 10
52.0
 20
72.0
 30
0.0
 10
52.270732262167179
 20
72.092401656044672
 30
0.0
 10
52.259270830622867
 20
72.080897049115904
 30
0.0
 10
52.373703187833136
 20
71.920783446601419
 30
0.0
 10
52.71693960671967
 20
71.955107088490067
 30
0.0
 10
53.174588165235072
 20
72.10384287000754
 30
0.0
 10
53.689442793564879
 20
72.012313158304494
 30
0.0
 10
53.815296147156609
 20
71.817812520935448
 30
0.0
 10
53.380530016567
 20
71.177104539013939
 30
0.0
 10
53.382839334630219
 20
71.174284390250875
 30
0.0
 10
54.856446617779099
 20
71.188545752976808
 30
0.0
 10
54.837958287275043
 20
71.140141934033636
 30
0.0
 10
55.234006678554287
 20
70.444866845389313
 30
0.0
 10
55.24544789251717
 20
70.158836496317193
 30
0.0
 10
54.833564189853327
 20
69.67830550987604
 30
0.0
 10
54.833564189853327
 20
69.67830550987604
 30
0.0
 10
53.463394063042252
 20
69.651913761743359
 30
0.0
 10
53.411525173470643
 20
69.605115013222417
 30
0.0
 10
53.415945060495382
 20
68.940178723540257
 30
0.0
 10
53.415945060495382
 20
68.940178723540257
 30
0.0
 10
55.0
 20
69.0
 30
0.0
 10
55.0
 20
69.0
 30
0.0
 10
55.527425673831303
 20
68.726658212079329
 30
0.0
 10
55.527425673831303
 20
68.536862201891822
 30
0.0
 10
55.551150175104738
 20
67.540433148407445
 30
0.0
 10
55.38507866619068
 20
67.611606652227735
 30
0.0
 10
53.392220559221933
 20
67.540433148407445
 30
0.0
 10
53.270899535879742
 20
67.29919492418108
 30
0.0
 10
53.392220559221933
 20
66.001562542702914
 30
0.0
 10
53.360023017217429
 20
65.957318123824649
 30
0.0
 10
54.554721121620382
 20
66.096460547796681
 30
0.0
 10
54.815690635628172
 20
66.689573079632595
 30
0.0
 10
54.806990419565842
 20
66.689105321552788
 30
0.0
 10
54.899999999999999
 20
66.199999999999989
 30
0.0
 10
54.70455525967828
 20
65.744662541377139
 30
0.0
 10
53.55128089221953
 20
65.481056971672288
 30
0.0
 10
52.941693012277042
 20
65.546958364098501
 30
0.0
 10
52.41448187286732
 20
66.008268111082003
 30
0.0
 10
52.529809309613192
 20
67.293345263393206
 30
0.0
 10
52.482682237904783
 20
67.356620666828718
 30
0.0
 10
50.915225195170912
 20
67.243919219073547
 30
0.0
 10
50.684570321679168
 20
67.243919219073547
 30
0.0
 10
50.371538707654651
 20
67.556950833098057
 30
0.0
 10
50.371538707654651
 20
68.891454029728919
 30
0.0
 10
50.327354325304881
 20
68.851799307841418
 30
0.0
 10
52.612186050145958
 20
68.891454029728919
 30
0.0
 10
52.664493313269212
 20
68.970070322401853
 30
0.0
 10
52.628661398252518
 20
69.649320042630393
 30
0.0
 10
52.628661398252518
 20
69.649320042630393
 30
0.0
 10
50.882274498957813
 20
69.665795390736946
 30
0.0
 10
50.813742528958471
 20
69.746286660717743
 30
0.0
 10
50.882274498957813
 20
71.132101372220234
 30
0.0
 10
50.78131650957414
 20
71.029696319181596
 30
0.0
 10
51.673091208072393
 20
71.033249283580929
 30
0.0
 10
51.673091208072393
 20
71.033249283580929
 30
0.0
 10
51.518066584384108
 20
71.150879912030604
 30
0.0
 10
51.459468453062293
 20
71.337046784478474
 30
0.0
  0
SPLINE
  5
C0
  8
grabado linea medio
 62
256
370
-1
 48
1.0
  6
ByLayer
100
AcDbEntity
100
AcDbSpline
 70
8
 71
3
 72
9
 73
5
 74
0
 40
0.0
 40
0.0
 40
0.0
 40
0.0
 40
1.0
 40
2.0
 40
2.0
 40
2.0
 40
2.0
 10
33.898549121319412
 20
99.334903441665006
 30
0.0
 10
32.586279450819788
 20
96.10319455162859
 30
0.0
 10
32.527842321800627
 20
96.044399244593791
 30
0.0
 10
33.687998390604918
 20
95.123888827375154
 30
0.0
 10
35.034543761453413
 20
95.246302042906834
 30
0.0
  0
LWPOLYLINE
  5
C1
  8
grabado linea medio
 62
256
370
-1
 48
1.0
  6
ByLayer
100
AcDbEntity
100
AcDbPolyline
 90
4
 70
1
 10
52.677602238882763
 20
71.752725803100162
 30
0.0
 10
53.318310220804292
 20
71.764167017063031
 30
0.0
 10
53.181015653249673
 20
71.340842100436305
 30
0.0
 10
52.49374269437434
 20
71.340844041762935
 30
0.0
  0
LWPOLYLINE
  5
C2
  8
grabado linea medio
 62
256
370
-1
 48
1.0
  6
ByLayer
100
AcDbEntity
100
AcDbPolyline
 90
4
 70
1
 10
52.535529820377207
 20
68.029168989422573
 30
0.0
 10
52.535529820377207
 20
67.76602106827626
 30
0.0
 10
50.819347725944539
 20
67.76602106827626
 30
0.0
 10
50.819347725944539
 20
68.029168989422573
 30
0.0
  0
LWPOLYLINE
  5
C3
  8
grabado linea medio
 62
256
370
-1
 48
1.0
  6
ByLayer
100
AcDbEntity
100
AcDbPolyline
 90
4
 70
1
 10
55.122067943394462
 20
68.070998067670885
 30
0.0
 10
55.122067943394462
 20
67.807392497966021
 30
0.0
 10
53.507483828952211
 20
67.807392497966021
 30
0.0
 10
53.507483828952211
 20
68.070998067670885
 30
0.0
  0
LWPOLYLINE
  5
C4
  8
grabado linea medio
 62
256
370
-1
 48
1.0
  6
ByLayer
100
AcDbEntity
100
AcDbPolyline
 90
4
 70
1
 10
55.105592595287902
 20
68.565258510867494
 30
0.0
 10
55.105592595287902
 20
68.301652941162644
 30
0.0
 10
53.40863174031287
 20
68.301652941162644
 30
0.0
 10
53.40863174031287
 20
68.565258510867494
 30
0.0
  0
LWPOLYLINE
  5
C5
  8
grabado linea medio
 62
256
370
-1
 48
1.0
  6
ByLayer
100
AcDbEntity
100
AcDbPolyline
 90
4
 70
1
 10
52.535438290665532
 20
68.4005002589127
 30
0.0
 10
52.535438290665532
 20
68.153374808203651
 30
0.0
 10
50.822521219890959
 20
68.153374808203651
 30
0.0
 10
50.822521219890959
 20
68.4005002589127
 30
0.0
  0
LWPOLYLINE
  5
C6
  8
grabado linea medio
 62
256
370
-1
 48
1.0
  6
ByLayer
100
AcDbEntity
100
AcDbPolyline
 90
4
 70
1
 10
54.70486453388645
 20
70.23323743025226
 30
0.0
 10
54.70486453388645
 20
70.004413150994566
 30
0.0
 10
53.412007356080501
 20
70.004413150994566
 30
0.0
 10
53.412007356080501
 20
70.23323743025226
 30
0.0
  0
LWPOLYLINE
  5
C7
  8
grabado linea medio
 62
256
370
-1
 48
1.0
  6
ByLayer
100
AcDbEntity
100
AcDbPolyline
 90
4
 70
1
 10
54.727746961812223
 20
70.736650844619192
 30
0.0
 10
54.727746961812223
 20
70.484944137435718
 30
0.0
 10
53.354801286266081
 20
70.484944137435718
 30
0.0
 10
53.354801286266081
 20
70.736650844619192
 30
0.0
  0
LWPOLYLINE
  5
C8
  8
grabado linea medio
 62
256
370
-1
 48
1.0
  6
ByLayer
100
AcDbEntity
100
AcDbPolyline
 90
4
 70
1
 10
52.588239950752822
 20
70.153148932512067
 30
0.0
 10
52.588239950752822
 20
69.970089509105904
 30
0.0
 10
51.272500345021093
 20
69.970089509105904
 30
0.0
 10
51.272500345021093
 20
70.153148932512067
 30
0.0
  0
LWPOLYLINE
  5
C9
  8
grabado linea medio
 62
256
370
-1
 48
1.0
  6
ByLayer
100
AcDbEntity
100
AcDbPolyline
 90
4
 70
1
 10
52.588239950752822
 20
70.702327202730515
 30
0.0
 10
52.588239950752822
 20
70.47350292347285
 30
0.0
 10
51.203853061243777
 20
70.47350292347285
 30
0.0
 10
51.203853061243777
 20
70.702327202730515
 30
0.0
  0
ENDSEC
  0
SECTION
  2
OBJECTS
  0
DICTIONARY
  5
C
100
AcDbDictionary
280
0
281
1
  3
ACAD_GROUP
350
D
  3
ACAD_LAYOUT
350
1A
  3
ACAD_MLINESTYLE
350
17
  3
ACAD_PLOTSETTINGS
350
19
  3
ACAD_PLOTSTYLENAME
350
E
  3
AcDbVariableDictionary
350
CA
  3
QCAD_OBJECTS
350
CB
  0
DICTIONARY
  5
D
100
AcDbDictionary
280
0
281
1
  0
ACDBDICTIONARYWDFLT
  5
E
100
AcDbDictionary
281
1
  3
Normal
350
F
100
AcDbDictionaryWithDefault
340
F
  0
ACDBPLACEHOLDER
  5
F
  0
DICTIONARY
  5
17
100
AcDbDictionary
280
0
281
1
  3
Standard
350
18
  0
MLINESTYLE
  5
18
100
AcDbMlineStyle
  2
STANDARD
 70
0
  3

 62
256
 51
90.0
 52
90.0
 71
2
 49
0.5
 62
256
  6
BYLAYER
 49
-0.5
 62
256
  6
BYLAYER
  0
DICTIONARY
  5
19
100
AcDbDictionary
280
0
281
1
  0
DICTIONARY
  5
1A
100
AcDbDictionary
281
1
  3
Layout1
350
1E
  3
Layout2
350
26
  3
Model
350
22
  0
LAYOUT
  5
1E
100
AcDbPlotSettings
  1

  2
none_device
  4

  6

 40
0.0
 41
0.0
 42
0.0
 43
0.0
 44
0.0
 45
0.0
 46
0.0
 47
0.0
 48
0.0
 49
0.0
140
0.0
141
0.0
142
1.0
143
1.0
 70
688
 72
0
 73
0
 74
5
  7

 75
16
147
1.0
148
0.0
149
0.0
100
AcDbLayout
  1
Layout1
 70
1
 71
1
 10
0.0
 20
0.0
 11
420.0
 21
297.0
 12
0.0
 22
0.0
 32
0.0
 14
100000000000000000000.0
 24
100000000000000000000.0
 34
100000000000000000000.0
 15
-100000000000000000000.0
 25
-100000000000000000000.0
 35
-100000000000000000000.0
146
0.0
 13
0.0
 23
0.0
 33
0.0
 16
1.0
 26
0.0
 36
0.0
 17
0.0
 27
1.0
 37
0.0
 76
0
330
1B
  0
LAYOUT
  5
22
100
AcDbPlotSettings
  1

  2
none_device
  4

  6

 40
0.0
 41
0.0
 42
0.0
 43
0.0
 44
0.0
 45
0.0
 46
0.0
 47
0.0
 48
0.0
 49
0.0
140
0.0
141
0.0
142
1.0
143
1.0
 70
1712
 72
0
 73
0
 74
0
  7

 75
0
147
1.0
148
0.0
149
0.0
100
AcDbLayout
  1
Model
 70
1
 71
0
 10
0.0
 20
0.0
 11
12.0
 21
9.0
 12
0.0
 22
0.0
 32
0.0
 14
0.0
 24
0.0
 34
0.0
 15
0.0
 25
0.0
 35
0.0
146
0.0
 13
0.0
 23
0.0
 33
0.0
 16
1.0
 26
0.0
 36
0.0
 17
0.0
 27
1.0
 37
0.0
 76
0
330
1F
  0
LAYOUT
  5
26
100
AcDbPlotSettings
  1

  2
none_device
  4

  6

 40
0.0
 41
0.0
 42
0.0
 43
0.0
 44
0.0
 45
0.0
 46
0.0
 47
0.0
 48
0.0
 49
0.0
140
0.0
141
0.0
142
1.0
143
1.0
 70
688
 72
0
 73
0
 74
5
  7

 75
16
147
1.0
148
0.0
149
0.0
100
AcDbLayout
  1
Layout2
 70
1
 71
2
 10
0.0
 20
0.0
 11
12.0
 21
9.0
 12
0.0
 22
0.0
 32
0.0
 14
0.0
 24
0.0
 34
0.0
 15
0.0
 25
0.0
 35
0.0
146
0.0
 13
0.0
 23
0.0
 33
0.0
 16
1.0
 26
0.0
 36
0.0
 17
0.0
 27
1.0
 37
0.0
 76
0
330
23
  0
DICTIONARY
  5
CA
100
AcDbDictionary
281
1
  3
DIMASSOC
350
CD
  3
HIDETEXT
350
CC
  0
DICTIONARYVAR
  5
CC
100
DictionaryVariables
280
0
  1
2
  0
DICTIONARYVAR
  5
CD
100
DictionaryVariables
280
0
  1
1
  0
DICTIONARY
  5
CB
100
AcDbDictionary
281
1
  3
ACAD_CIP_PREVIOUS_PRODUCT_INFO
350
CE
  3
ColorSettings/BackgroundColor
350
CF
  3
ColorSettings/ColorMode
350
D0
  3
DimensionSettings/AngularFormat
350
D1
  3
DimensionSettings/AngularPrecision
350
D2
  3
DimensionSettings/DimensionFont
350
D3
  3
DimensionSettings/KeepProportions
350
D4
  3
DimensionSettings/LinearFormat
350
D5
  3
DimensionSettings/LinearPrecision
350
D6
  3
Grid/DisplayGrid00
350
D7
  3
Grid/DisplayGrid01
350
D8
  3
Grid/DisplayGrid02
350
D9
  3
Grid/DisplayGrid03
350
DA
  3
Grid/GridSpacingX00
350
DB
  3
Grid/GridSpacingX01
350
DC
  3
Grid/GridSpacingX02
350
DD
  3
Grid/GridSpacingX03
350
DE
  3
Grid/GridSpacingY00
350
DF
  3
Grid/GridSpacingY01
350
E0
  3
Grid/GridSpacingY02
350
E1
  3
Grid/GridSpacingY03
350
E2
  3
Grid/IsometricGrid00
350
E3
  3
Grid/IsometricGrid01
350
E4
  3
Grid/IsometricGrid02
350
E5
  3
Grid/IsometricGrid03
350
E6
  3
Grid/IsometricProjection00
350
E7
  3
Grid/IsometricProjection01
350
E8
  3
Grid/IsometricProjection02
350
E9
  3
Grid/IsometricProjection03
350
EA
  3
Grid/MetaGridSpacingX00
350
EB
  3
Grid/MetaGridSpacingX01
350
EC
  3
Grid/MetaGridSpacingX02
350
ED
  3
Grid/MetaGridSpacingX03
350
EE
  3
Grid/MetaGridSpacingY00
350
EF
  3
Grid/MetaGridSpacingY01
350
F0
  3
Grid/MetaGridSpacingY02
350
F1
  3
Grid/MetaGridSpacingY03
350
F2
  3
MultiPageSettings/Columns
350
F3
  3
MultiPageSettings/GlueMarginsBottom
350
F4
  3
MultiPageSettings/GlueMarginsLeft
350
F5
  3
MultiPageSettings/GlueMarginsRight
350
F6
  3
MultiPageSettings/GlueMarginsTop
350
F7
  3
MultiPageSettings/PrintCropMarks
350
F8
  3
MultiPageSettings/Rows
350
F9
  3
PageSettings/OffsetX
350
FA
  3
PageSettings/OffsetY
350
FB
  3
PageSettings/PageOrientation
350
FC
  3
PageSettings/PaperHeight
350
FD
  3
PageSettings/PaperSizeName
350
FE
  3
PageSettings/PaperWidth
350
FF
  3
PageSettings/Scale
350
100
  3
PageSettings/ShowPaperBorders
350
101
  3
QCADVersion
350
102
  3
UnitSettings/PaperUnit
350
103
  3
ViewportCenter
350
104
  3
ViewportHeight
350
105
  3
ViewportWidth
350
106
  0
XRECORD
  5
CF
330
CB
100
AcDbXrecord
280
1
1000
#ffffff
  0
XRECORD
  5
D0
330
CB
100
AcDbXrecord
280
1
1000
FullColor
  0
XRECORD
  5
D1
330
CB
100
AcDbXrecord
280
1
 40
0.0
  0
XRECORD
  5
D2
330
CB
100
AcDbXrecord
280
1
 40
0.0
  0
XRECORD
  5
D3
330
CB
100
AcDbXrecord
280
1
1000
Standard
  0
XRECORD
  5
D4
330
CB
100
AcDbXrecord
280
1
290
1
  0
XRECORD
  5
D5
330
CB
100
AcDbXrecord
280
1
 40
2.0
  0
XRECORD
  5
D6
330
CB
100
AcDbXrecord
280
1
 40
2.0
  0
XRECORD
  5
D7
330
CB
100
AcDbXrecord
280
1
290
0
  0
XRECORD
  5
D8
330
CB
100
AcDbXrecord
280
1
290
1
  0
XRECORD
  5
D9
330
CB
100
AcDbXrecord
280
1
290
1
  0
XRECORD
  5
DA
330
CB
100
AcDbXrecord
280
1
290
1
  0
XRECORD
  5
DB
330
CB
100
AcDbXrecord
280
1
1000
auto
  0
XRECORD
  5
DC
330
CB
100
AcDbXrecord
280
1
1000
auto
  0
XRECORD
  5
DD
330
CB
100
AcDbXrecord
280
1
1000
auto
  0
XRECORD
  5
DE
330
CB
100
AcDbXrecord
280
1
1000
auto
  0
XRECORD
  5
DF
330
CB
100
AcDbXrecord
280
1
1000
auto
  0
XRECORD
  5
E0
330
CB
100
AcDbXrecord
280
1
1000
auto
  0
XRECORD
  5
E1
330
CB
100
AcDbXrecord
280
1
1000
auto
  0
XRECORD
  5
E2
330
CB
100
AcDbXrecord
280
1
1000
auto
  0
XRECORD
  5
E3
330
CB
100
AcDbXrecord
280
1
290
0
  0
XRECORD
  5
E4
330
CB
100
AcDbXrecord
280
1
290
0
  0
XRECORD
  5
E5
330
CB
100
AcDbXrecord
280
1
290
0
  0
XRECORD
  5
E6
330
CB
100
AcDbXrecord
280
1
290
0
  0
XRECORD
  5
E7
330
CB
100
AcDbXrecord
280
1
 90
0
  0
XRECORD
  5
E8
330
CB
100
AcDbXrecord
280
1
 90
0
  0
XRECORD
  5
E9
330
CB
100
AcDbXrecord
280
1
 90
0
  0
XRECORD
  5
EA
330
CB
100
AcDbXrecord
280
1
 90
0
  0
XRECORD
  5
EB
330
CB
100
AcDbXrecord
280
1
1000
auto
  0
XRECORD
  5
EC
330
CB
100
AcDbXrecord
280
1
1000
auto
  0
XRECORD
  5
ED
330
CB
100
AcDbXrecord
280
1
1000
auto
  0
XRECORD
  5
EE
330
CB
100
AcDbXrecord
280
1
1000
auto
  0
XRECORD
  5
EF
330
CB
100
AcDbXrecord
280
1
1000
auto
  0
XRECORD
  5
F0
330
CB
100
AcDbXrecord
280
1
1000
auto
  0
XRECORD
  5
F1
330
CB
100
AcDbXrecord
280
1
1000
auto
  0
XRECORD
  5
F2
330
CB
100
AcDbXrecord
280
1
1000
auto
  0
XRECORD
  5
F3
330
CB
100
AcDbXrecord
280
1
 90
1
  0
XRECORD
  5
F4
330
CB
100
AcDbXrecord
280
1
 40
10.0
  0
XRECORD
  5
F5
330
CB
100
AcDbXrecord
280
1
 40
10.0
  0
XRECORD
  5
F6
330
CB
100
AcDbXrecord
280
1
 40
10.0
  0
XRECORD
  5
F7
330
CB
100
AcDbXrecord
280
1
 40
10.0
  0
XRECORD
  5
F8
330
CB
100
AcDbXrecord
280
1
290
0
  0
XRECORD
  5
F9
330
CB
100
AcDbXrecord
280
1
 90
1
  0
XRECORD
  5
FA
330
CB
100
AcDbXrecord
280
1
 40
0.0
  0
XRECORD
  5
FB
330
CB
100
AcDbXrecord
280
1
 40
0.0
  0
XRECORD
  5
FC
330
CB
100
AcDbXrecord
280
1
1000
Portrait
  0
XRECORD
  5
FD
330
CB
100
AcDbXrecord
280
1
 40
279.39999999999998
  0
XRECORD
  5
FE
330
CB
100
AcDbXrecord
280
1
1000
ANSI A (Letter)
  0
XRECORD
  5
FF
330
CB
100
AcDbXrecord
280
1
 40
215.90000000000001
  0
XRECORD
  5
100
330
CB
100
AcDbXrecord
280
1
1000
1:1
  0
XRECORD
  5
101
330
CB
100
AcDbXrecord
280
1
290
1
  0
XRECORD
  5
102
330
CB
100
AcDbXrecord
280
1
1000
3.15.2
  0
XRECORD
  5
103
330
CB
100
AcDbXrecord
280
1
 90
4
  0
XRECORD
  5
105
330
CB
100
AcDbXrecord
280
1
 40
181.83773782413516
  0
XRECORD
  5
106
330
CB
100
AcDbXrecord
280
1
 40
373.20030953429648
  0
ENDSEC
  0
EOF
